Home » E » Everything But The Girl »

Everything But The Girl - When Alls Well Tabs

Artists:  A B C D E F G H I J K L M N O P Q R S T U V W X Y Z # 

When Alls Well Tabs

(ver. 1) Click to play this song!
Everything But The Girl
[intro]

e|---------8---12------10--12--15----------10--15-----7------15-|
B|-----10--10--10--12--12--12--12------10--10------8--8--12--12-|
G|-9---9---9---9---12--12--12--12--10--10--10--14--9--9--12--12-|
D|-10--10--10------12--12--12--12--12--12--12--12--9--9--12--12-|
A|-8---8---8-----------------------12--12--12--12--7--7--10-----|
E|---------------------------------10--10--10-------------------|

[Verse]

e|---------0--------------0-------------1-1-1-0-----------------------|
B|-1---1-----3-1-3----1-----3-1-3-----1---------1---------0---------0-|
G|-0-----0---------1----1-----------2-------------2-----2---2p0---2---|
D|-2---------------0----------------------------------2---------2-----|
A|-3---------------2--------------0-----------------------------------|
E|-----------------0--------------------------------0-----------------|


[Chorus]

e|----3-3-3-3-3-1-0---------0-------------0-|
B|-1--1-1-1-1-1-1-1-1-----3-------------3---|
G|-2--2-2-2-2-2-2-2-2-0-0-----0-0-0-0-0-----|
D|-3--3-3-3-3-3-3-3-3-0-0-----0-0-0-0-0-----| x3
A|--------------------2-2-----2-2-2-2-2-----|
E|--------------------3-3-----3-3-3-3-3-----|

e|-------------1--1--1--1-1-1-0--0--0-0-0-0--0--0--0-0-0-|
B|-1--1--1-1-1-3--3--3--3-3-3-0--0--0-0-0-3--3--3--3-3-3-|
G|-2--2--2-2-2-2--2--2--2-2-2-0--0--0-0-0-0--0--0--0-0-0-|
D|-3--3--3-3-3----------------2--2--2-2-2-0--0--0--0-0-0-| x1
A|----------------------------2--2--2-2-2-2--2--2--2-2-2-|
E|----------------------------0--0--0-0-0-3--3--3--3-3-3-|


[Bridge] Watch out for the timing on this bit.

e|------------------0----0-------------0-----8-----10-------------8-----10--------|
B|----------------3------------------3----8-----8--------------8-----8------------|
G|-----2-------2------------2------2----------------------------------------------|
D|--------------------------------------------------------------------------------|
A|-0------0-----------------------------------------------------------------------|
E|--------------------------------------------------------------------------------|


Ring out on this chord...

e|-0--------------------------------------------------------------------------|
B|-1--------------------------------------------------------------------------|
G|-2--------------------------------------------------------------------------|
D|-3--------------------------------------------------------------------------|
A|---------------------------------------------------------------------------|
E|---------------------------------------------------------------------------|            
Submit corrections

↑ Back to top | Tablatures and chords for acoustic guitar and electric guitar, ukulele, drums are parodies/interpretations of the original songs. You may use it for private study, scholarship, research or language learning purposes only