» » »

Every Avenue - Tell Me I'm A Wreck Tabs

Artists:  A B C D E F G H I J K L M N O P Q R S T U V W X Y Z # 

Tell Me I'm A Wreck Tabs

(ver. 3) Click to play this song!
Every Avenue
 Rating:
4/5 (4 votes)

 Tell Me I'm A Wreck lessons Tabs too difficult? Try these video lessons and learn fast
 
                This is my first tab and this is a really easy song to play. I am going to work on the 
of the song but i didn't have enough time to tab the rest of the song. I think this is 
but feel free to post any corrections if there are any to be made.


e|-------------------------------------------------8-8-8-5-5-5-5-5---------|
B|---------------------6---6-/10-11--10-8-6--------------------------------|
G|-----------------5-7---7-------------------------------------------------|
D|--------3---3-h5-------------------------------3-------------------------|
A|--3-3-5---5-------------------------------3-h5---------------------------|
D|-------------------------------------------------------------------------|


e|--8-8-8-3-3-3-3-3--------------------------------------------------------|
B|-------------------------------------------------------------------------|
G|-------------------------------------------------------------------------|
D|----------------------------------3-3-3-3-5-5-5-5-----------------3-3-3-3|
A|-------------------3-3-3-3-5-5-5-5-----------------3-3-3-3-5-5-5-5-------|
D|-------------------------------------------------------------------------|


e|-------------------------------------------------------------------------|
B|-------------------------------------------------------------------------|
G|-------------------------------------------------------------------------|
D|-7-7-7-7~----------------------------------------------------------------|
A|-------------------------------------------------------------------------|
D|-------------------------------------------------------------------------|

Guitar Legend-
h- hammer on
~- hold out
            
Submit corrections


        Tell Me I'm A Wreck lessons Hard to play? Try these video lessons and learn fast Tell Me I'm A Wreck lessons
        
↑ Back to top | Tablatures and chords for acoustic guitar and electric guitar, ukulele, drums are parodies/interpretations of the original songs. You may use it for private study, scholarship, research or language learning purposes only