» » »

Every Avenue - Only Place I Call Home Tabs

Artists:  A B C D E F G H I J K L M N O P Q R S T U V W X Y Z # 

Only Place I Call Home Tabs

(ver. 2) Click to play this song!
Every Avenue
 Rating:
3.3/5 (20 votes)

 Only Place I Call Home lessons Tabs too difficult? Try these video lessons and learn fast
 
                e|----2--4--4--2--4--4--2--4--4--2--4--4--2--4--4--2--4--4--4b5r4p2----------|
B|---------------------------------------------------------------------------|
G|---------------------------------------------------------------------------|
D|---------------------------------------------------------------------------|
A|---------------------------------------------------------------------------|
E|---------------------------------------------------------------------------|

e|----2--4--4--2--4--4--2--4--4--2--4--4--2--4--4--2--4--4--4b5 /9-----------|
B|---------------------------------------------------------------------------|
G|---------------------------------------------------------------------------|
D|---------------------------------------------------------------------------|
A|---------------------------------------------------------------------------|
E|---------------------------------------------------------------------------|

e|--11p9h11----------/14--13h14p13--------16b17--16p14----13--11--13--13b14--|
B|----------11p9h11~---------------16--14-------------16~--------------------|
G|---------------------------------------------------------------------------|
D|---------------------------------------------------------------------------|
A|---------------------------------------------------------------------------|
E|---------------------------------------------------------------------------|
            
Submit corrections


        Only Place I Call Home lessons Hard to play? Try these video lessons and learn fast Only Place I Call Home lessons
        
↑ Back to top | Tablatures and chords for acoustic guitar and electric guitar, ukulele, drums are parodies/interpretations of the original songs. You may use it for private study, scholarship, research or language learning purposes only