Home » E » Everly Brothers »

Everly Brothers - Bird Dog Tabs

Artists:  A B C D E F G H I J K L M N O P Q R S T U V W X Y Z # 

Bird Dog Tabs

(ver. 2) Click to play this song!
Everly Brothers

Gtr I (E A D G B E) - 'Don Everly - Electric Guitar'
Gtr II (E A D G B E) - 'Phil Everly - Acoustic Guitar'


 Intro
  Q=144
  B       E      A   F#
 4/4
  Gtr I (El. Gtr.)
  Q    Q    Q     Q       E  E  E  E  +H
|----------------------|---------------------|
|-7----7----9----10----|-11-11-11-11-(11)----|
|-8----8----9-----9----|-11-11-11-11-(11)----|
|-9----9----9----11----|-11-11-11-11-(11)----|
|----------------------|---------------------|
|----------------------|---------------------|
|
| Gtr II (Ac. Gtr.)
| E. S E. S E. S  E. S    E  E  E  E  +H
|-----------0--0--0----|--2--2--2--2--(2)----|
|-4--4-4--0-0--0--2--2-|--2--2--2--2--(2)----|
|-4--4-4--1-1--1--2--3-|--3--3--3--3--(3)----|
|-4--4-4--2-2--2--2--4-|--4--4--4--4--(4)----|
|-2----2----2--2--0----|--4--4--4--4--(4)----|
|-----------0--0-------|--2--2--2--2--(2)----|


  B       E      A   F#
  Q    Q    Q     Q       E  E  E  E  +H
|----------------------|---------------------|
|-7----7----9----10----|-11-11-11-11-(11)----|
|-8----8----9-----9----|-11-11-11-11-(11)----|
|-9----9----9----11----|-11-11-11-11-(11)----|
|----------------------|---------------------|
|----------------------|---------------------|
|
| E. S E. S E. S  E. S    E  E  E  E  +H
|-----------0--0--0----|--2--2--2--2--(2)----|
|-4--4-4--0-0--0--2--2-|--2--2--2--2--(2)----|
|-4--4-4--1-1--1--2--3-|--3--3--3--3--(3)----|
|-4--4-4--2-2--2--2--4-|--4--4--4--4--(4)----|
|-2----2----2--2--0----|--4--4--4--4--(4)----|
|-----------0--0-------|--2--2--2--2--(2)----|


   1st - 3rd Verses
    $
    B
      PM----------|     PM----------|     PM----------|     PM----------|
    E E E E E E E E   E E E E E E E E   E E E E E E E E   E E E E E E E E
||------------------|-----------------|-----------------|------------------|
||o-------7-9-7-----|-------7-9-7-----|-------7-9-7-----|-------7-9-7------|
||------8-------8-6-|-----8-------8-6-|-----8-------8-6-|-----8-------8-6--|
||----9-------------|---9-------------|---9-------------|---9--------------|
||o-----------------|-----------------|-----------------|------------------|
||------------------|-----------------|-----------------|------------------|
|
|   E E E E E E E E   E E E E E E E E   E E E E E E E E   E E E E E E E E
||------------------|-----------------|-----------------|------------------|
||o-4-4-4-x-4-4-4-x-|-4-4-4-x-4-4-4-x-|-4-4-4-x-4-4-4-x-|-4-4-4-x-4-4-4-x--|
||--4-4-4-x-4-4-4-x-|-4-4-4-x-4-4-4-x-|-4-4-4-x-4-4-4-x-|-4-4-4-x-4-4-4-x--|
||--4-4-4-x-4-4-4-x-|-4-4-4-x-4-4-4-x-|-4-4-4-x-4-4-4-x-|-4-4-4-x-4-4-4-x--|
||o-2-2-2-x-2-2-2-x-|-2-2-2-x-2-2-2-x-|-2-2-2-x-2-2-2-x-|-2-2-2-x-2-2-2-x--|
||------------------|-----------------|-----------------|------------------|


  E                                   B
  PM------------------------------|     PM----------|     PM----------|
  E E E E E E E E   E E E E E E E E   E E E E E E E E   E E E E E E E E
|-------7-9-7-----|-------7-9-7-----|-----------------|-----------------|
|-----9-------9---|-----9-------9---|-------7-9-7-----|-------7-9-7-----|
|---9-----------9-|---9-----------9-|-----8-------8-6-|-----8-------8-6-|
|-----------------|-----------------|---9-------------|---9-------------|
|-----------------|-----------------|-----------------|-----------------|
|-----------------|-----------------|-----------------|-----------------|
|
| E E E E E E E E   E E E E E E E E   E E E E E E E E   E E E E E E E E
|-0-0-0-x-0-0-0-x-|-0-0-0-x-0-0-0-x-|-----------------|-----------------|
|-0-0-0-x-0-0-0-x-|-0-0-0-x-0-0-0-x-|-4-4-4-x-4-4-4-x-|-4-4-4-x-4-4-4-x-|
|-1-1-1-x-1-1-1-x-|-1-1-1-x-1-1-1-x-|-4-4-4-x-4-4-4-x-|-4-4-4-x-4-4-4-x-|
|-2-2-2-x-2-2-2-x-|-2-2-2-x-2-2-2-x-|-4-4-4-x-4-4-4-x-|-4-4-4-x-4-4-4-x-|
|-2-2-2-x-2-2-2-x-|-2-2-2-x-2-2-2-x-|-2-2-2-x-2-2-2-x-|-2-2-2-x-2-2-2-x-|
|-0-0-0-x-0-0-0-x-|-0-0-0-x-0-0-0-x-|-----------------|-----------------|


  F#                     E
     PM--------------------------------|
  E  E  E E  E E  E  E   E E E E E E E E
|---------9-11-9-------|-------7-9-7-----|
|------11--------11----|-----9-------9---|
|---11--------------11-|---9-----------9-|
|----------------------|-----------------|
|----------------------|-----------------|
|----------------------|-----------------|
|
| E  E  E E  E E  E  E   E E E E E E E E
|-2--2--2-x--2-2--2--x-|-0-0-0-x-0-0-0-x-|
|-2--2--2-x--2-2--2--x-|-0-0-0-x-0-0-0-x-|
|-3--3--3-x--3-3--3--x-|-1-1-1-x-1-1-1-x-|
|-4--4--4-x--4-4--4--x-|-2-2-2-x-2-2-2-x-|
|-4--4--4-x--4-4--4--x-|-2-2-2-x-2-2-2-x-|
|-2--2--2-x--2-2--2--x-|-0-0-0-x-0-0-0-x-|


                        1.
  B       E      A   F#
  Q    Q    Q     Q       E  E  E  E  +H
|----------------------|----------------------||
|-7----7----9----10----|-11-11-11-11-(11)----o||
|-8----8----9-----9----|-11-11-11-11-(11)-----||
|-9----9----9----11----|-11-11-11-11-(11)-----||
|----------------------|---------------------o||
|----------------------|----------------------||
|
| E. S E. S E. S  E. S    E  E  E  E  +H
|-----------0--0--0----|--2--2--2--2--(2)-----||
|-4--4-4--0-0--0--2--2-|--2--2--2--2--(2)----o||
|-4--4-4--1-1--1--2--3-|--3--3--3--3--(3)-----||
|-4--4-4--2-2--2--2--4-|--4--4--4--4--(4)-----||
|-2----2----2--2--0----|--4--4--4--4--(4)----o||
|-----------0--0-------|--2--2--2--2--(2)-----||


                           Bridge
  2.,D.S.
                            E
                   PM---------------------------------|
   E  E  E  Q      E E E    Q   E E E E E E   E E E E +E  E E E
|------------------------||-----------------|-------------7-7-7-|
|-11-11-11-11\-----------||-----------------|-------------7-7-7-|
|-11-11-11-11\-----------||-----------------|-------------9-9-9-|
|-11-11-11-11\---------1-||-2---------------|-------------------|
|------------------2-4---||-------2-4-2-4-2-|-------------------|
|------------------------||-----4-----------|-0-0-0-0-(0)-------|
|
|  E  E  E  E  +H           E E E E E E E E   E E E E  E  E E E
|--2--2--2--2--(2)-------||-0-0-0-x-0-0-0-x-|-0-0-0-x--0--0-0-x-|
|--2--2--2--2--(2)-------||-0-0-0-x-0-0-0-x-|-0-0-0-x--0--0-0-x-|
|--3--3--3--3--(3)-------||-1-1-1-x-1-1-1-x-|-1-1-1-x--1--1-1-x-|
|--4--4--4--4--(4)-------||-2-2-2-x-2-2-2-x-|-2-2-2-x--2--2-2-x-|
|--4--4--4--4--(4)-------||-2-2-2-x-2-2-2-x-|-2-2-2-x--2--2-2-x-|
|--2--2--2--2--(2)-------||-0-0-0-x-0-0-0-x-|-0-0-0-x--0--0-0-x-|


  B                                     F#
  PM------------------------|
  Q   E E E E E E   E E E E +E  E E E   E  Q    E E  E  E  E
|-----------------|-------------7-7-7-|----9----9----9--9--9-|
|-----------------|-------------7-7-7-|---11---11---11-11-11-|
|-----------------|-------------8-8-8-|---11---11---11-11-11-|
|---------6---6---|-------------------|----------------------|
|-----6-9---9---9-|-------------------|-9--------------------|
|-7---------------|-7-7-7-7-(7)-------|----------------------|
|
| E E E E E E E E   E E E E  E  E E E   E  E E  E E  E  E  E
|-----------------|-------------------|-2--2-2--x-2--2--2--x-|
|-4-4-4-x-4-4-4-x-|-4-4-4-x--4--4-4-x-|-2--2-2--x-2--2--2--x-|
|-4-4-4-x-4-4-4-x-|-4-4-4-x--4--4-4-x-|-3--3-3--x-3--3--3--x-|
|-4-4-4-x-4-4-4-x-|-4-4-4-x--4--4-4-x-|-4--4-4--x-4--4--4--x-|
|-2-2-2-x-2-2-2-x-|-2-2-2-x--2--2-2-x-|-4--4-4--x-4--4--4--x-|
|-----------------|-------------------|-2--2-2--x-2--2--2--x-|


  E                 B               B7
                                                 PM--|
  E Q   E E E E E   Q  Q  Q  E. S   E E E  Q     E E E
|---7---7---7-7-7-|-7--7--7--7--7-|-----7--------------|
|---9---9---9-9-9-|-7--7--7--7--7-|-7-7-7-10-----------|
|---9---9---9-9-9-|-8--8--8--8--8-|-8-8-8--8-----------|
|-----------------|---------------|-9-9-9--9-----------|
|-7---------------|---------------|----------------4-6-|
|-----------------|---------------|--------------7-----|
|
| E E E E E E E E   Q  Q  Q  Q      E E E  E +E  E E E
|-0-0-0-x-0-0-0-x-|-2--2--2--2----|-2-2-2--2-(2)-2-2-2-|
|-0-0-0-x-0-0-0-x-|-4--4--4--4----|-4-4-4--4-(4)-4-4-4-|
|-1-1-1-x-1-1-1-x-|-4--4--4--4----|-2-2-2--2-(2)-2-2-2-|
|-2-2-2-x-2-2-2-x-|-4--4--4--4----|-4-4-4--4-(4)-4-4-4-|
|-2-2-2-x-2-2-2-x-|-2--2--2--2----|-2-2-2--2-(2)-2-2-2-|
|-0-0-0-x-0-0-0-x-|---------------|--------------------|


  E                                     B
  PM------------------------|           PM------------|
  Q   E E E E E E   E E E E +E  E E E   Q   E E E E E E
|-----------------|-------------7-7-7-|-----------------|
|-----------------|-------------7-7-7-|-----------------|
|-----------------|-------------9-9-9-|-----------------|
|-2---------------|-------------------|---------6---6---|
|-------2-4-2-4-2-|-------------------|-----6-9---9---9-|
|-----4-----------|-0-0-0-0-(0)-------|-7---------------|
|
| E E E E E E E E   E E E E  E  E E E   E E E E E E E E
|-0-0-0-x-0-0-0-x-|-0-0-0-x--0--0-0-x-|-----------------|
|-0-0-0-x-0-0-0-x-|-0-0-0-x--0--0-0-x-|-4-4-4-x-4-4-4-x-|
|-1-1-1-x-1-1-1-x-|-1-1-1-x--1--1-1-x-|-4-4-4-x-4-4-4-x-|
|-2-2-2-x-2-2-2-x-|-2-2-2-x--2--2-2-x-|-4-4-4-x-4-4-4-x-|
|-2-2-2-x-2-2-2-x-|-2-2-2-x--2--2-2-x-|-2-2-2-x-2-2-2-x-|
|-0-0-0-x-0-0-0-x-|-0-0-0-x--0--0-0-x-|-----------------|


                      F#                     E
  PM------|
  E E E E +E  E E E   E  Q    E E  E  E  E   E  E  E  E E  E  E  E
|-------------7-7-7-|----9----9----9--9--9-|---10-10-10---10-10-10-|
|-------------7-7-7-|---11---11---11-11-11-|----9--9--9----9--9--9-|
|-------------8-8-8-|---11---11---11-11-11-|----9--9--9----9--9--9-|
|-------------------|----------------------|-----------------------|
|-------------------|-9--------------------|-----------------------|
|-7-7-7-7-(7)-------|----------------------|-----------------------|
|
| E E E E  E  E E E   E  E E  E E  E  E  E   E  E  E  E E  E  E  E
|-------------------|-2--2-2--x-2--2--2--x-|-0--0--0--x-0--0--0--x-|
|-4-4-4-x--4--4-4-x-|-2--2-2--x-2--2--2--x-|-0--0--0--x-0--0--0--x-|
|-4-4-4-x--4--4-4-x-|-3--3-3--x-3--3--3--x-|-1--1--1--x-1--1--1--x-|
|-4-4-4-x--4--4-4-x-|-4--4-4--x-4--4--4--x-|-2--2--2--x-2--2--2--x-|
|-2-2-2-x--2--2-2-x-|-4--4-4--x-4--4--4--x-|-2--2--2--x-2--2--2--x-|
|-------------------|-2--2-2--x-2--2--2--x-|-0--0--0--x-0--0--0--x-|


                                   To Coda
  B       E      A   F#
  Q    Q    Q     Q       E  E  E  E  +H
|----------------------|---------------------|
|-7----7----9----10----|-11-11-11-11-(11)----|
|-8----8----9-----9----|-11-11-11-11-(11)----|
|-9----9----9----11----|-11-11-11-11-(11)----|
|----------------------|---------------------|
|----------------------|---------------------|
|
| E. S E. S E. S  E. S    E  E  E  E  +H
|-----------0--0--0----|--2--2--2--2--(2)----|
|-4--4-4--0-0--0--2--2-|--2--2--2--2--(2)----|
|-4--4-4--1-1--1--2--3-|--3--3--3--3--(3)----|
|-4--4-4--2-2--2--2--4-|--4--4--4--4--(4)----|
|-2----2----2--2--0----|--4--4--4--4--(4)----|
|-----------0--0-------|--2--2--2--2--(2)----|


                              D.S. al Coda
  B       E      A   F#
  Q    Q    Q     Q       E  E  E  E  +H
|----------------------|---------------------||
|-7----7----9----10----|-11-11-11-11-(11)----||
|-8----8----9-----9----|-11-11-11-11-(11)----||
|-9----9----9----11----|-11-11-11-11-(11)----||
|----------------------|---------------------||
|----------------------|---------------------||
|
| E. S E. S E. S  E. S    E  E  E  E  +H
|-----------0--0--0----|--2--2--2--2--(2)----||
|-4--4-4--0-0--0--2--2-|--2--2--2--2--(2)----||
|-4--4-4--1-1--1--2--3-|--3--3--3--3--(3)----||
|-4--4-4--2-2--2--2--4-|--4--4--4--4--(4)----||
|-2----2----2--2--0----|--4--4--4--4--(4)----||
|-----------0--0-------|--2--2--2--2--(2)----||


 Outro
  &
  B       E      A   F#
  Q    Q    Q     Q       E  E  E  E  +H
|----------------------|---------------------|
|-7----7----9----10----|-11-11-11-11-(11)----|
|-8----8----9-----9----|-11-11-11-11-(11)----|
|-9----9----9----11----|-11-11-11-11-(11)----|
|----------------------|---------------------|
|----------------------|---------------------|
|
| E. S E. S E. S  E. S    E  E  E  E  +H
|-----------0--0--0----|--2--2--2--2--(2)----|
|-4--4-4--0-0--0--2--2-|--2--2--2--2--(2)----|
|-4--4-4--1-1--1--2--3-|--3--3--3--3--(3)----|
|-4--4-4--2-2--2--2--4-|--4--4--4--4--(4)----|
|-2----2----2--2--0----|--4--4--4--4--(4)----|
|-----------0--0-------|--2--2--2--2--(2)----|


  B       E      A   F#
  Q    Q    Q     Q       E  E  E  E  +H
|----------------------|---------------------*|
|-7----7----9----10----|-11-11-11-11-(11)----*|
|-8----8----9-----9----|-11-11-11-11-(11)----*|
|-9----9----9----11----|-11-11-11-11-(11)----*|
|----------------------|---------------------*|
|----------------------|---------------------*|
|
| E. S E. S E. S  E. S    E  E  E  E  +H
|-----------0--0--0----|--2--2--2--2--(2)----*|
|-4--4-4--0-0--0--2--2-|--2--2--2--2--(2)----*|
|-4--4-4--1-1--1--2--3-|--3--3--3--3--(3)----*|
|-4--4-4--2-2--2--2--4-|--4--4--4--4--(4)----*|
|-2----2----2--2--0----|--4--4--4--4--(4)----*|
|-----------0--0-------|--2--2--2--2--(2)----*|
            
Submit corrections

↑ Back to top | Tablatures and chords for acoustic guitar and electric guitar, ukulele, drums are parodies/interpretations of the original songs. You may use it for private study, scholarship, research or language learning purposes only