Home » E » Evan Taubenfeld »

Evan Taubenfeld - Something's Wrong Tabs

Artists:  A B C D E F G H I J K L M N O P Q R S T U V W X Y Z # 

Something's Wrong Tabs

(ver. 1) Click to play this song!
Evan Taubenfeld
 Rating:
4/5 (4 votes)
                Tuning: Standard
Guitars: Guitar 1 (evan) and Guitar 2


Intro: Guitar 1 AND Guitar 2

E:----------------------------------|
B:----------------------------------|
G:--4-4-4-2-4-4-4-2-4-4-4-2-4-4-4-2-|
D:----------------------------------|
A:----------------------------------|
E:----------------------------------|
PM...................................

unpalm mute here, gettin louder
E:----------------------------------|
B:----------------------------------|
G:--4-4-4-2-4-4-4-2-4-4-4-2-4-4-4-2-|
D:----------------------------------|
A:----------------------------------|
E:----------------------------------|


E:--------------------------------------|
B:--------------------------------------|
G:--4-4-4-2-4----4-4-4-2-4--------------|
D:--4-4-4-2-4----4-4-4-2-4-----5x8--2x8-|
A:--2-2-2-0-2-5b-2-2-2-0-2-5b--5x8--2x8-|
E:-----------------------------3x8--0x8-|


E:----------------------------------------|
B:----------------------------------------|
G:--4-4-4-2-4----4-4-4-2-4----------------|
D:--4-4-4-2-4----4-4-4-2-4-----5x8--2-2-2-|
A:--2-2-2-0-2-5b-2-2-2-0-2-5b--5x8--2-2-2-|
E:-----------------------------3x8--0-0-0-|
let the last chord ring

Intro Guitar 2

E:------------------------------------|
B:-12-12-12-10-12---12-12-12-10-12----|
G:------------------------------------|
D:------------------------------------|
A:------------------------------------|
E:------------------------------------|

E:------------------------------------|
B:------------------------------------|
G:------------------------------------|
D:-5x8--2x8---------------------------|
A:-5x8--2x8---------------------------|
E:-3x8--0x8---------------------------|


E:------------------------------------|
B:-12-12-12-10-12---12-12-12-10-------|
G:------------------------------------|
D:------------------------------------|
A:------------------------------------|
E:------------------------------------|

E:------------------------------------|
B:------17~-17~-17~-------------------|
G:------------------------------------|
D:-5x8--------------------------------|
A:-5x8--------------------------------|
E:-3x8--------------------------------|


Verse: Guitar 1 and Guitar 2


Life is torture everyday.....
E:------------------------------------|
B:------------------------------------|
G:-4x16-------------------------------|
D:-4x16----5x8--2x8-------------------|
A:-2x16----5x8--2x8-------------------|
E:---------3x8--0x8-------------------|
PM.................

Someone make it go away.....
E:------------------------------------|
B:------------------------------------|
G:-4x16--------------4----------------|
D:-4x16----5x8--2x8--4----------------|
A:-2x16----5x8--2x8--2----------------|
E:---------3x8--0x8-------------------|
PM.................

Can't figure out what is causing it now..... 
E:------------------------------------|
B:------------------------------------|
G:-4x16--------------4\5--------------|
D:-4x16----5x8--2x8--4\5--------------|
A:-2x16----5x8--2x8--2\3--------------|
E:---------3x8--0x8-------------------|
PM.................

Seems impossible to stop the pain......
E:------------------------------------|
B:------------------------------------|
G:-4x16-------------------------------|
D:-4x16----5x8--2x8-------------------|
A:-2x16----5x8--2x8-------------------|
E:---------3x8--0x8-------------------|

Pre-Chorus: Guitar 1 and 2

E:------------------------------------|
B:------------------------------------|
G:------------------------------------|
D:-5x8--7x8--5x8--2x8-----------------|
A:-5x8--7x8--5x8--2x8-----------------|
E:-3x8--5x8--3x8--0x8-----------------|

Chorus: Guitar 1 and Guitar 2

Something's wrong, I don't know what it is....
E:------------------------------------|
B:------------------------------------|
G:-4x16-------------------------------|
D:-4x16----5x8--2x8-------------------|
A:-2x16----5x8--2x8-------------------|
E:---------3x8--0x8-------------------|

I can't go on, another day like this.....
E:------------------------------------|
B:------------------------------------|
G:-4x16-------------------------------|
D:-4x16----5x8--2x8-------------------|
A:-2x16----5x8--2x8-------------------|
E:---------3x8--0x8-------------------|

Been so lost, not gonna make it........
E:------------------------------------|
B:------------------------------------|
G:-4x16-------------------------------|
D:-4x16----5x8--2x8-------------------|
A:-2x16----5x8--2x8-------------------|
E:---------3x8--0x8-------------------|

Make it all, wanna run, amke it done, but just can't find my way out....
E:------------------------------------|
B:------------------------------------|
G:-4x16-------------------------------|
D:-4x16----5x8--2x8-------------------|
A:-2x16----5x8--2x8-------------------|
E:---------3x8--0x8-------------------|
On the Last G and E chords, theres slighty different strumming.

After-chrous: Guitar 1 and Guitar 2
E:----------------------------------------------------|
B:----------------------------------------------------|
G:-4x32-\--4-4-4-2-4-4-4-2-4-4-4-2-4-4-4-2--4-4-4-----|
D:-4x32-\-----------------------------------4-4-4-----|
A:-2x32-\-----------------------------------2-2-2-----|
E:----------------------------------------------------|
Let last B's ring

Song fades out after this, im guessing, after this verse 2, pre chorus 2, chorus 2, Bridge, Chrous 3
            
Submit corrections

↑ Back to top | Tablatures and chords for acoustic guitar and electric guitar, ukulele, drums are parodies/interpretations of the original songs. You may use it for private study, scholarship, research or language learning purposes only