» » »

Eskorbuto - Si Tu Estuvieras Aki Tabs

Artists:  A B C D E F G H I J K L M N O P Q R S T U V W X Y Z # 

Si Tu Estuvieras Aki Tabs

(ver. 1) Click to play this song!
Eskorbuto
 Rating:
4/5 (4 votes)

 Si Tu Estuvieras Aki lessons Tabs too difficult? Try these video lessons and learn fast
 
                

Eskorbuto





solo
e:--------------------------------------------------------------------------------------|
B:----0-2-3~~~~----0-2------------0-2-3p2--3/5-5p3-5/7----------------------------------|
G:-2-------------2------2~~~~---2-----------------------7~~~~---------------------------|
D:------------------------------------------------------7~~~~---5-4-5-------5-4-5-------|
A:--------------------------------------------------------------------7~~~--------4~~~~-|
E:--------------------------------------------------------------------------------------|

                                                 fBdk
e:-3--2h3p2-0-------------------------------------------------------|
B:-------------3-2-0---------------------------------(15B~~~~)------|
G:--------------------2-0-------------------------------------------|
D:-------------------------4-2-4----------5nh-----------------------|
A:--------------------------------5~~~~-----------------------------|
E:------------------------------------------------------------------|
            
Submit corrections


        Si Tu Estuvieras Aki lessons Hard to play? Try these video lessons and learn fast Si Tu Estuvieras Aki lessons
        
↑ Back to top | Tablatures and chords for acoustic guitar and electric guitar, ukulele, drums are parodies/interpretations of the original songs. You may use it for private study, scholarship, research or language learning purposes only