» » »

Eskorbuto - Rogad A Dios Por Los Muertos Tabs

Artists:  A B C D E F G H I J K L M N O P Q R S T U V W X Y Z # 

Rogad A Dios Por Los Muertos Tabs

(ver. 1) Click to play this song!
Eskorbuto
 Rating:
4/5 (4 votes)

 Rogad A Dios Por Los Muertos lessons Tabs too difficult? Try these video lessons and learn fast
 
                Rogad a dios por los muertos


eskorButo






 pick slide slowly   
e:-----------|
B:-----------|
G:-----------|
D:-----------|
A:-x\--------|
E:-x\--------|

 repeat
e:-----------------|
B:-6-6-x-6-x-x-6-x-|
G:-5-5-x-5-x-x-5-x-|
D:-----------------|
A:-----------------|
E:-----------------|


e:---------------------------|
B:-6-------------------------|
G:-5-------------------------|
D:-3-------------------------|
A:----x\---------------------|
E:----x\---x\x\x\x\x\x\x\----|

   repeat
e:--------------------|
B:-6-6-6-6-6-6-6-6--6-|
G:-5-5-5-5-5-5-5-5--5-|
D:--------------------|
A:--------------------|
E:--------------------|

e:-----------------------------|
B:-6-6-6-6-6-6-4/6--6-6-6--6-6-|
G:-5-5-5-5-5-5-3/5--5-5-5--5-5-|
D:-----------------------------|
A:-----------------------------|
E:-----------------------------|


:---------|
:-6-------|
:-5-------|
:---------|
:-----x\--|
:-----x\--|


e:-------------------------------------------------------|
B:---------------------------------------------------6-6-|
G:---------------------------------------------------5-5-|
D:-3-3-3-3-3-3--6-6-6-6-6-6--5-5-5-5-5-5-5-5-5-5-5-5-----|
A:-1-1-1-1-1-1--4-4-4-4-4-4--3-3-3-3-3-3-3-3-3-3-3-3-----|
E:-------------------------------------------------------|
optional
e:-----------------------------------------------------------|
B:-------------------------------------------------------6-6-|
G:-------------------------------------------------------5-5-|
D:-3-3-3-3-3-3--6-6-6-6-6-6-------------------5-5--5-5-5-----|
A:-1-1-1-1-1-1--4-4-4-4-4-4--3-3-2-3-2-3-2-3--3-3--3-3-3-----|
E:-----------------------------------------------------------|

   repeat
e:--------------------|
B:-6-6-6-6-6-6-6-6--6-|
G:-5-5-5-5-5-5-5-5--5-|
D:--------------------|
A:--------------------|
E:--------------------|


e:---------------------|
B:-6-6-----------------|
G:-5-5-----------------|
D:---------------------|
A:------x\--3--3---x\--|
E:------x\--1--1---x\--|

:------------------------------------------------------------------------------------------|
:-7h8-8-8-8-7h8-8-8-8-7h8-8-7h8-8-7h8-8-8-8-7h8-8-8-8-7h8-8-7h8-8-7h8-8-8-8-7h8-8-8-8-7h8-8|
:------------------------------------------------------------------------------------------|
:------------------------------------------------------------------------------------------|
:------------------------------------------------------------------------------------------|
:------------------------------------------------------------------------------------------|

e:--------------------------------------------------------------------------------|
B:--------------------------------------------------------------------------------|
G:-8-5--8-5--8-5--8-5--8-5--8-5--8-5--8-5--8-5--8-5--8-5--8-5--8-5--8-5--8-5--8-5-|
D:--------------------------------------------------------------------------------|
A:--------------------------------------------------------------------------------|
E:--------------------------------------------------------------------------------|

        -----      ----       ----       ----       ----       ----       ----       ----
e:-6h7B/-7-7--6h7B/-7-7--6h7B/-7-7--6h7B/-7-7--6h7B/-7-7--6h7B/-7-7--6h7B/-7-7--6h7B/-7-7-|
B:----------------------------------------------------------------------------------------|
G:----------------------------------------------------------------------------------------|
D:----------------------------------------------------------------------------------------|
A:----------------------------------------------------------------------------------------|
E:----------------------------------------------------------------------------------------|

:------------------------------------------------------------------------------------------|
:-7h8-8-8-8-7h8-8-8-8-7h8-8-7h8-8-7h8-8-8-8-7h8-8-8-8-7h8-8-7h8-8-7h8-8-8-8-7h8-8-8-8-7h8-8|
:------------------------------------------------------------------------------------------|
:------------------------------------------------------------------------------------------|
:------------------------------------------------------------------------------------------|
:------------------------------------------------------------------------------------------|

:--------------|
:-7h8p7--------|
:-------8~~~~~-|
:--------------|
:--------------|
:--------------|

e:-----------------------|
B:-----6B-----6B------6B-|
G:-----8B-----8B------8B-|
D:-----------------------|
A:-x\------x\------x\----|
E:-x\------x\------x\----|

e:-------------------------------------------------------|
B:---------------------------------------------------6-6-|
G:---------------------------------------------------5-5-|
D:-3-3-3-3-3-3--6-6-6-6-6-6--5-5-5-5-5-5-5-5-5-5-5-5-----|
A:-1-1-1-1-1-1--4-4-4-4-4-4--3-3-3-3-3-3-3-3-3-3-3-3-----|
E:-------------------------------------------------------|
optional
e:-----------------------------------------------------------|
B:-------------------------------------------------------6-6-|
G:-------------------------------------------------------5-5-|
D:-3-3-3-3-3-3--6-6-6-6-6-6-------------------5-5--5-5-5-----|
A:-1-1-1-1-1-1--4-4-4-4-4-4--3-3-2-3-2-3-2-3--3-3--3-3-3-----|
E:-----------------------------------------------------------|

   repeat
e:--------------------|
B:-6-6-6-6-6-6-6-6--6-|
G:-5-5-5-5-5-5-5-5--5-|
D:--------------------|
A:--------------------|
E:--------------------|

repea 3 imes
:---------|
:-6-------|
:-5-------|
:---------|
:-----x\--|
:-----x\--|

e:-------------------------------------------------------|
B:---------------------------------------------------6-6-|
G:---------------------------------------------------5-5-|
D:-3-3-3-3-3-3--6-6-6-6-6-6--5-5-5-5-5-5-5-5-5-5-5-5-----|
A:-1-1-1-1-1-1--4-4-4-4-4-4--3-3-3-3-3-3-3-3-3-3-3-3-----|
E:-------------------------------------------------------|
optional
e:-----------------------------------------------------------|
B:-------------------------------------------------------6-6-|
G:-------------------------------------------------------5-5-|
D:-3-3-3-3-3-3--6-6-6-6-6-6-------------------5-5--5-5-5-----|
A:-1-1-1-1-1-1--4-4-4-4-4-4--3-3-2-3-2-3-2-3--3-3--3-3-3-----|
E:-----------------------------------------------------------|


:------------------------------------------------------------------------------------------|
:-7h8-8-8-8-7h8-8-8-8-7h8-8-7h8-8-7h8-8-8-8-7h8-8-8-8-7h8-8-7h8-8-7h8-8-8-8-7h8-8-8-8-7h8-8|
:------------------------------------------------------------------------------------------|
:------------------------------------------------------------------------------------------|
:------------------------------------------------------------------------------------------|
:------------------------------------------------------------------------------------------|

e:--------------------------------------------------------------------------------|
B:--------------------------------------------------------------------------------|
G:-8-5--8-5--8-5--8-5--8-5--8-5--8-5--8-5--8-5--8-5--8-5--8-5--8-5--8-5--8-5--8-5-|
D:--------------------------------------------------------------------------------|
A:--------------------------------------------------------------------------------|
E:--------------------------------------------------------------------------------|

        -----      ----       ----       ----       ----       ----       ----       ----
e:-6h7B/-7-7--6h7B/-7-7--6h7B/-7-7--6h7B/-7-7--6h7B/-7-7--6h7B/-7-7--6h7B/-7-7--6h7B/-7-7-|
B:----------------------------------------------------------------------------------------|
G:----------------------------------------------------------------------------------------|
D:----------------------------------------------------------------------------------------|
A:----------------------------------------------------------------------------------------|
E:----------------------------------------------------------------------------------------|

:------------------------------------------------------------------------------------------|
:-7h8-8-8-8-7h8-8-8-8-7h8-8-7h8-8-7h8-8-8-8-7h8-8-8-8-7h8-8-7h8-8-7h8-8-8-8-7h8-8-8-8-7h8-8|
:------------------------------------------------------------------------------------------|
:------------------------------------------------------------------------------------------|
:------------------------------------------------------------------------------------------|
:------------------------------------------------------------------------------------------|

:---------|
:---------|
:--8~~~~~-|
:---------|
:---------|
:---------|

e:-----------------------|
B:-----6B-----6B------6B-|
G:-----8B-----8B------8B-|
D:-----------------------|
A:-x\------x\------x\----|
E:-x\------x\------x\----|

e:-------------------------------------------------------|
B:---------------------------------------------------6-6-|
G:---------------------------------------------------5-5-|
D:-3-3-3-3-3-3--6-6-6-6-6-6--5-5-5-5-5-5-5-5-5-5-5-5-----|
A:-1-1-1-1-1-1--4-4-4-4-4-4--3-3-3-3-3-3-3-3-3-3-3-3-----|
E:-------------------------------------------------------|
optional
e:-----------------------------------------------------------|
B:-------------------------------------------------------6-6-|
G:-------------------------------------------------------5-5-|
D:-3-3-3-3-3-3--6-6-6-6-6-6-------------------5-5--5-5-5-----|
A:-1-1-1-1-1-1--4-4-4-4-4-4--3-3-2-3-2-3-2-3--3-3--3-3-3-----|
E:-----------------------------------------------------------|


:------------|
:------------|
:------------|
:-5----------|
:-3----------|
:------------|
            
Submit corrections


        Rogad A Dios Por Los Muertos lessons Hard to play? Try these video lessons and learn fast Rogad A Dios Por Los Muertos lessons
        
↑ Back to top | Tablatures and chords for acoustic guitar and electric guitar, ukulele, drums are parodies/interpretations of the original songs. You may use it for private study, scholarship, research or language learning purposes only