» » »

Eskorbuto - Ratas Rabiosas Tabs

Artists:  A B C D E F G H I J K L M N O P Q R S T U V W X Y Z # 

Ratas Rabiosas Tabs

(ver. 1) Click to play this song!
Eskorbuto
 Rating:
4/5 (4 votes)

 Ratas Rabiosas lessons Tabs too difficult? Try these video lessons and learn fast
 
                ratas rabiosas


eskorButo






e:----------------------------------------------------------------|
B:----------------------------------------------------------------|
G:----------------------------------------------------------------|
D:-------------------------------------12-12-12-12-12-12-12-12-12-|
A:-10-10-10-10-10-10-10-10--11-11-11-9-10-10-10-10-10-10-10-10-10-|
E:-8--8--8--8--8--8--8--8---9--9--9--7----------------------------|

e:--------------------------------------------------|
B:--------------------------------------------------|
G:------10-10-10-10-10-10-10-10-10--6-6-6-6-6-6-6-6-|
D:-10---10-10-10-10-10-10-10-10-10--6-6-6-6-6-6-6-6-|
A:-8----8--8--8--8--8--8--8--8--8---4-4-4-4-4-4-4-4-|
E:--------------------------------------------------|

e:----------------------------------------------------------------|
B:----------------------------------------------------------------|
G:----------------------------------------------------------------|
D:-------------------------------------12-12-12-12-12-12-12-12-12-|
A:-10-10-10-10-10-10-10-10--11-11-11-9-10-10-10-10-10-10-10-10-10-|
E:-8--8--8--8--8--8--8--8---9--9--9--7----------------------------|

e:--------------------------------------------------|
B:--------------------------------------------------|
G:------10-10-10-10-10-10-10-10-10--6-6-6-6-6-6-6-6-|
D:-10---10-10-10-10-10-10-10-10-10--6-6-6-6-6-6-6-6-|
A:-8----8--8--8--8--8--8--8--8--8---4-4-4-4-4-4-4-4-|
E:--------------------------------------------------|

 repeat
                            ---------------
e:-------------------------/----------------|
B:-7----------7---------7B/-7-7-7-7-7-7-7-7-|
G:---8-5h8p5----8-5h8p5---------------------|
D:------------------------------------------|
A:------------------------------------------|
E:------------------------------------------|

                            -----------------------------------------
e:-------------------------/------------------------------------------|
B:-7----------7---------7B/-7-7-7-7-7-7-7-7-7-8-7-8-7-8-7-8-7-8-7-8-7-|
G:---8-5h8p5----8-5h8p5-----------------------------------------------|
D:--------------------------------------------------------------------|
A:--------------------------------------------------------------------|
E:--------------------------------------------------------------------|

                            ---------------
e:-------------------------/----------------|
B:-7----------7---------7B/-7-7-7-7-7-7-7-7-|
G:---8-5h8p5----8-5h8p5---------------------|
D:------------------------------------------|
A:------------------------------------------|
E:------------------------------------------|


:------------------------------------------|
:-----5B---------5-6-------5-5B--------5h6-|
:-6-6-----6-6--6------6-6--------6-6-6-----|
:------------------------------------------|
:------------------------------------------|
:------------------------------------------|

e:----------------------------------------------------------------|
B:----------------------------------------------------------------|
G:----------------------------------------------------------------|
D:-------------------------------------12-12-12-12-12-12-12-12-12-|
A:-10-10-10-10-10-10-10-10--11-11-11-9-10-10-10-10-10-10-10-10-10-|
E:-8--8--8--8--8--8--8--8---9--9--9--7----------------------------|

e:--------------------------------------------------|
B:--------------------------------------------------|
G:------10-10-10-10-10-10-10-10-10--6-6-6-6-6-6-6-6-|
D:-10---10-10-10-10-10-10-10-10-10--6-6-6-6-6-6-6-6-|
A:-8----8--8--8--8--8--8--8--8--8---4-4-4-4-4-4-4-4-|
E:--------------------------------------------------|

 repeat
                            ---------------
e:-------------------------/----------------|
B:-7----------7---------7B/-7-7-7-7-7-7-7-7-|
G:---8-5h8p5----8-5h8p5---------------------|
D:------------------------------------------|
A:------------------------------------------|
E:------------------------------------------|

e:--------------|
B:-7-7----------|
G:--------------|
D:--------------|
A:--------------|
E:--------------|
            
Submit corrections


        Ratas Rabiosas lessons Hard to play? Try these video lessons and learn fast Ratas Rabiosas lessons
        
↑ Back to top | Tablatures and chords for acoustic guitar and electric guitar, ukulele, drums are parodies/interpretations of the original songs. You may use it for private study, scholarship, research or language learning purposes only