» » »

Eskorbuto - Oh No No No Policia En Accion Tabs

Artists:  A B C D E F G H I J K L M N O P Q R S T U V W X Y Z # 

Oh No No No Policia En Accion Tabs

(ver. 1) Click to play this song!
Eskorbuto
 Rating:
4/5 (4 votes)

 Oh No No No Policia En Accion lessons Tabs too difficult? Try these video lessons and learn fast
 
                Oh no,no,no (policía en accion)


Eskorbuto






e:---------------------------|
B:---------------------------|
G:---------------------------|
D:---------------------------|
A:-10-10-10-10-8--7-7-7-7--5-|
E:-8--8--8--8--6--5-5-5-5--3-|

e:------------------------------|
B:------------------------------|
G:------------------------------|
D:-5---5-5----------------------|
A:-3---3-3--2-3--5--5-5--0-1-2--|
E:----------0-1--3--3-3---------|

verse
ya lo sabia no duraria dos chokes se acerkan la policia
e:------------------------------|
B:------------------------------|
G:------------------------------|
D:-5---5-5----------------------|
A:-3---3-3--2-3--5--5-5--0-1-2--|
E:----------0-1--3--3-3---------|

Por la noche en la ciudad es la puta realidad...
e:----------------------------------------------------------------|
B:-----9b-----9b-----9b-----9b-----9b-----9b-----9b-----9b-----9b-|
G:-11b----11b----11b----11b----11b----11b----11b----11b----11b----|
D:----------------------------------------------------------------|
A:----------------------------------------------------------------|
E:----------------------------------------------------------------|

gt1 or bass
:----------------------------------------------------------|
:----------------------------------------------------------|
:----------------------------------------------------------|
:-5--5-5-5-5-5--3--3-3-3-3-3-------------------------------|
:-3--3-3-3-3-3--1--1-1-1-1-1--7-7-7-7-7-7-7--5-5-5-5-5-5-5-|
:-----------------------------5-5-5-5-5-5-5--3-3-3-3-3-3-3-|

documentacion Me han pillado de marrón...
e:------------------------------|
B:------------------------------|
G:------------------------------|
D:-5---5-5----------------------|
A:-3---3-3--2-3--5--5-5--0-1-2--|
E:----------0-1--3--3-3---------|

Yo no quiero ir..
e:----------------------------------------------------------------|
B:-----9b-----9b-----9b-----9b-----9b-----9b-----9b-----9b-----9b-|
G:-11b----11b----11b----11b----11b----11b----11b----11b----11b----|
D:----------------------------------------------------------------|
A:----------------------------------------------------------------|
E:----------------------------------------------------------------|

gt1 or bass
:----------------------------------------------------------|
:----------------------------------------------------------|
:----------------------------------------------------------|
:-5--5-5-5-5-5--3--3-3-3-3-3-------------------------------|
:-3--3-3-3-3-3--1--1-1-1-1-1--7-7-7-7-7-7-7--5-5-5-5-5-5-5-|
:-----------------------------5-5-5-5-5-5-5--3-3-3-3-3-3-3-|

e:------------------------------|
B:------------------------------|
G:------------------------------|
D:-5---5-5----------------------|
A:-3---3-3--2-3--5--5-5--0-1-2--|
E:----------0-1--3--3-3---------|


e:-6-------------------------------------------------|
B:-6--8~~--------------------------------------------|
G:----7~~---9b--9b--9b--9b--9b-11--13~~~-13-13-13-13-|
D:---------11b-11b-11b-11b-11b-10--12~~~-12-12-12-12-|
A:---------------------------------------------------|
E:---------------------------------------------------|

   repeat
e:------------------------------------------|
B:------------------------------------------|
G:-9b--9b--9b--9b--9b-11--13~~~-13-13-13-13-|
D:11b-11b-11b-11b-11b-10--12~~~-12-12-12-12-|
A:------------------------------------------|
E:------------------------------------------|

e:-----------------------------------------------------------------------------------------|
B:-----9b-----9b-----9b-9b---9b---9b---9b--9b---9b-9b--9b--9b--9b--9b--9b---9b-9b---9b--9b-|
G:-11b----11b----11b----11b--11b--11b--11b-11b-11b-11b-11b-11b-11b-11b-11b-11b-11b-11b-11b-|
D:-----------------------------------------------------------------------------------------|
A:-----------------------------------------------------------------------------------------|
E:-----------------------------------------------------------------------------------------|

gt1 or bass
:----------------------------------------------------------|
:----------------------------------------------------------|
:----------------------------------------------------------|
:-5--5-5-5-5-5--3--3-3-3-3-3-------------------------------|
:-3--3-3-3-3-3--1--1-1-1-1-1--7-7-7-7-7-7-7--5-5-5-5-5-5-5-|
:-----------------------------5-5-5-5-5-5-5--3-3-3-3-3-3-3-|
            
Submit corrections


        Oh No No No Policia En Accion lessons Hard to play? Try these video lessons and learn fast Oh No No No Policia En Accion lessons
        
↑ Back to top | Tablatures and chords for acoustic guitar and electric guitar, ukulele, drums are parodies/interpretations of the original songs. You may use it for private study, scholarship, research or language learning purposes only