» » »

Eskorbuto - Mierda Mierda Mierda Tabs

Artists:  A B C D E F G H I J K L M N O P Q R S T U V W X Y Z # 

Mierda Mierda Mierda Tabs

(ver. 1) Click to play this song!
Eskorbuto
 Rating:
4/5 (4 votes)

 Mierda Mierda Mierda lessons Tabs too difficult? Try these video lessons and learn fast
 
                Mierda, mierda, mierda


Eskorbuto





intro
e:-----------------------------|
B:-----------------------------|
G:-----------------------------|
D:-----------------------------|
A:-6--6-6--6--4/2--2--2-2--2/4-|
E:-----------------------------|


Seguridad social....
e:-----------------------------|
B:-----------------------------|
G:-----------------------------|
D:-----------------------------|
A:-6--6-6--6--4/2--2--2-2--2/4-|
E:-----------------------------|


Mierda, mierda, mierda, mierda...
e:-----------------------------|
B:-----------------------------|
G:-----------------------------|
D:-----------------------------|
A:-6--6-6--6--4/2--2--2-2--2/4-|
E:-----------------------------|

e:------------------------|
B:------------------------|
G:------------------------|
D:-4----------------------|
A:-2----------------------|
E:------------------------|

e:-----------------------------|
B:-----------------------------|
G:-----------------------------|
D:-8--8-8--8--4/4--4--4-4--4/6-|
A:-6--6-6--6--4/2--2--2-2--2/4-|
E:-----------------------------|

Todo, todo para hacienda
e:-----------------------------|
B:-----------------------------|
G:-----------------------------|
D:-8--8-8--8--4/4--4--4-4--4/6-|
A:-6--6-6--6--4/2--2--2-2--2/4-|
E:-----------------------------|


Mierda, mierda, mierda, mierda...
e:-----------------------------|
B:-----------------------------|
G:-----------------------------|
D:-----------------------------|
A:-6--6-6--6--4/2--2--2-2--2/4-|
E:-----------------------------|

e:------------------------|
B:------------------------|
G:------------------------|
D:-4----------------------|
A:-2----------------------|
E:------------------------|

e:-----------------------------|
B:-----------------------------|
G:-----------------------------|
D:-8--8-8--8--4/4--4--4-4--4/6-|
A:-6--6-6--6--4/2--2--2-2--2/4-|
E:-----------------------------|

solo
e:-----------------------------------------------------------------------------------------|
B:-----------------------------------------------------------------------------------------|
G:-14-14-14-14-14-14-14-14-14-14-14-14-14-14-14-14-14-14-14-14-14-14-14-14-14-14-14-14~~~~-|
D:-----------------------------------------------------------------------------------------|
A:-----------------------------------------------------------------------------------------|
E:-----------------------------------------------------------------------------------------|

el gobierno...
e:-----------------------------|
B:-----------------------------|
G:-----------------------------|
D:-8--8-8--8--4/4--4--4-4--4/6-|
A:-6--6-6--6--4/2--2--2-2--2/4-|
E:-----------------------------|

mierda mierda mierda...
e:-----------------------------|
B:-----------------------------|
G:-----------------------------|
D:-8--8-8--8--4/4--4--4-4--4/6-|
A:-6--6-6--6--4/2--2--2-2--2/4-|
E:-----------------------------|


e:-----------------------------|
B:-----------------------------|
G:-----------------------------|
D:-4---------------8-8-8--6--8-|
A:-2---------------6-6-6--4--6-|
E:-----------------------------|

06:20 p.m. 13/06/2003 hillo son
            
Submit corrections


        Mierda Mierda Mierda lessons Hard to play? Try these video lessons and learn fast Mierda Mierda Mierda lessons
        
↑ Back to top | Tablatures and chords for acoustic guitar and electric guitar, ukulele, drums are parodies/interpretations of the original songs. You may use it for private study, scholarship, research or language learning purposes only