» » »

Eskorbuto - Donde Esta El Porvenir Tabs

Artists:  A B C D E F G H I J K L M N O P Q R S T U V W X Y Z # 

Donde Esta El Porvenir Tabs

(ver. 1) Click to play this song!
Eskorbuto
 Rating:
4/5 (4 votes)

 Donde Esta El Porvenir lessons Tabs too difficult? Try these video lessons and learn fast
 
                Donde esta el porvenir


Eskorbuto






e:--------------------|
B:-2-0----------------|
G:-----2-0------------|
D:------------4-------|
A:------------4-------|
E:----------0-2-------|


e:--------------------------------------------|
B:--------------------------------------------|
G:--------------------------------------------|
D:-4---4---4---4-4-4--7---7---7---7-7--9-9-9--|
A:-4---4---4---4-4-4--7---7---7---7-7--9-9-9--|
E:-2-0-2-0-2-0-2-2-2--5-0-5-0-5-0-5-5--7-7-7--|

verse
e:--------------------------------------------|
B:--------------------------------------------|
G:--------------------------------------------|
D:-4-4-4-4-4-4-4-4-4--7-7-7-7-7-7-7-7--9-9-9--|
A:-4-4-4-4-4-4-4-4-4--7-7-7-7-7-7-7-7--9-9-9--|
E:-2-2-2-2-2-2-2-2-2--5-5-5-5-5-5-5-5--7-7-7--|

¿Donde está el porvenir?
e:------------------------------------|
B:------------------------------------|
G:------------------------------------|
D:-4-4-4-4-4-4-4-4-4--7-7-7-7-7-7-7-7-|
A:-4-4-4-4-4-4-4-4-4--7-7-7-7-7-7-7-7-|
E:-2-2-2-2-2-2-2-2-2--5-5-5-5-5-5-5-5-|

¿Donde está el porvenir? Que forjaron nuestros viejos
e:--------------------------------------------|
B:--------------------------------------------|
G:--------------------------------------------|
D:-4-4-4-4-4-4-4-4-4--7-7-7-7-7-7-7-7--9-9-9--|
A:-4-4-4-4-4-4-4-4-4--7-7-7-7-7-7-7-7--9-9-9--|
E:-2-2-2-2-2-2-2-2-2--5-5-5-5-5-5-5-5--7-7-7--|

Regla de monja,	semen de gato Ojo de buitre, nariz de payaso
e:--------------------------------------------|
B:--------------------------------------------|
G:--------------------------------------------|
D:-4-4-4-4-4-4-4-4-4--7-7-7-7-7-7-7-7--9-9-9--|
A:-4-4-4-4-4-4-4-4-4--7-7-7-7-7-7-7-7--9-9-9--|
E:-2-2-2-2-2-2-2-2-2--5-5-5-5-5-5-5-5--7-7-7--|

¿Donde está el porvenir?
e:------------------------------------|
B:------------------------------------|
G:------------------------------------|
D:-4-4-4-4-4-4-4-4-4--7-7-7-7-7-7-7-7-|
A:-4-4-4-4-4-4-4-4-4--7-7-7-7-7-7-7-7-|
E:-2-2-2-2-2-2-2-2-2--5-5-5-5-5-5-5-5-|

¿Donde está el porvenir? Que forjaron nuestros viejos
e:--------------------------------------------|
B:--------------------------------------------|
G:--------------------------------------------|
D:-4-4-4-4-4-4-4-4-4--7-7-7-7-7-7-7-7--9-9-9--|
A:-4-4-4-4-4-4-4-4-4--7-7-7-7-7-7-7-7--9-9-9--|
E:-2-2-2-2-2-2-2-2-2--5-5-5-5-5-5-5-5--7-7-7--|


e:------------------------------------|
B:------------------------------------|
G:------------------------------------|
D:-4-4-4-4-4-4-4-4-4--7-7-7-7-7-7-7-7-|
A:-4-4-4-4-4-4-4-4-4--7-7-7-7-7-7-7-7-|
E:-2-2-2-2-2-2-2-2-2--5-5-5-5-5-5-5-5-|

e:-----------------------------------------------------|
B:-----------------------------------------------------|
G:-----------------------------------------------------|
D:-4-4-4-4-4-4-4-4-4--9-9-9-9-9-9-9-9--7-7-7-7-7-7-7-7-|
A:-4-4-4-4-4-4-4-4-4--9-9-9-9-9-9-9-9--7-7-7-7-7-7-7-7-|
E:-2-2-2-2-2-2-2-2-2--7-7-7-7-7-7-7-7--5-5-5-5-5-5-5-5-|

e:--------------------------------------------|
B:--------------------------------------------|
G:--------------------------------------------|
D:-4-4-4-4-4-4-4-4-4--7-7-7-7-7-7-7-7--9-9-9--|
A:-4-4-4-4-4-4-4-4-4--7-7-7-7-7-7-7-7--9-9-9--|
E:-2-2-2-2-2-2-2-2-2--5-5-5-5-5-5-5-5--7-7-7--|

¿Donde está el porvenir?
e:----------------------------------------|
B:----------------------------------------|
G:----------------------------------------|
D:-----4-4-4-4-4-4-4-4-4--7-7-7-7-7-7-7-7-|
A:-----4-4-4-4-4-4-4-4-4--7-7-7-7-7-7-7-7-|
E:-0---2-2-2-2-2-2-2-2-2--5-5-5-5-5-5-5-5-|

¿Donde está el porvenir? Que forjaron nuestros viejos
e:--------------------------------------------|
B:--------------------------------------------|
G:--------------------------------------------|
D:-4-4-4-4-4-4-4-4-4--7-7-7-7-7-7-7-7--9-9-9--|
A:-4-4-4-4-4-4-4-4-4--7-7-7-7-7-7-7-7--9-9-9--|
E:-2-2-2-2-2-2-2-2-2--5-5-5-5-5-5-5-5--7-7-7--|

e:-------------------------|
B:-------------------------|
G:-------------------------|
D:-9-9-8-8-7-7-6-6-5-5-4-4-|
A:-9-9-8-8-7-7-6-6-5-5-4-4-|
E:-7---6---5---4---3---2---|

e:-------------------------|
B:-------------------------|
G:-------------------------|
D:-9-9-8-8-7-7-6-6-5-5-4-4-|
A:-9-9-8-8-7-7-6-6-5-5-4-4-|
E:-7---6---5---4---3---2---|


:-----------------------------------------------------|
:-----------------------------------------------------|
:-----------------------------------------------------|
:-4-4-4-4---4---4---4---4---4---4---4---4----------4--|
:-4-4-4-4---4---4---4---4---4---4---4---4----------4--|
:-2-2-2-2-0-2-0-2-0-2-0-2-0-2-0-2-0-2-0-2----------2--|
            
Submit corrections


        Donde Esta El Porvenir lessons Hard to play? Try these video lessons and learn fast Donde Esta El Porvenir lessons
        
↑ Back to top | Tablatures and chords for acoustic guitar and electric guitar, ukulele, drums are parodies/interpretations of the original songs. You may use it for private study, scholarship, research or language learning purposes only