» » »

Eskorbuto - Criaturas Al Poder Tabs

Artists:  A B C D E F G H I J K L M N O P Q R S T U V W X Y Z # 

Criaturas Al Poder Tabs

(ver. 1) Click to play this song!
Eskorbuto
 Rating:
4/5 (4 votes)

 Criaturas Al Poder lessons Tabs too difficult? Try these video lessons and learn fast
 
                criaturas al poder


eskorbuto






e:----------------------------------|
B:-16b-16b-16b----16b-16b-16b-------|
G:-18b-18b-18b----18b-18b-18b-------|
D:----------------------------------|
A:----------------------------------|
E:----------------------------------|


e:---------------------------------|
B:---------------------------------|
G:-9-9-9-9-8-8-8-8-7-7-7-7-6-6-6-6-|
D:-9-9-9-9-8-8-8-8-7-7-7-7-6-6-6-6-|
A:-7-------6-------5-------4-------|
E:---------------------------------|

Viejos gobiernan este mundo
e:-------------------------------------|
B:-------------------------16b-16b-16b-|
G:-------------------------18b-18b-18b-|
D:-------------------------------------|
A:-2-----------------------------------|
E:-0-0-0-0-0-0-0-0-0-0-0-0-------------|


Viejos, siempre viejos...
e:---------------------------------|
B:---------------------------------|
G:-9-9-9-9-8-8-8-8-7-7-7-7-6-6-6-6-|
D:-9-9-9-9-8-8-8-8-7-7-7-7-6-6-6-6-|
A:-7-------6-------5-------4-------|
E:---------------------------------|

viejos intereses, viejos errores
e:-------------------------------------|
B:-------------------------16b-16b-16b-|
G:-------------------------18b-18b-18b-|
D:-------------------------------------|
A:-2-----------------------------------|
E:-0-0-0-0-0-0-0-0-0-0-0-0-------------|


Viejos, siempre viejos...
e:---------------------------------|
B:---------------------------------|
G:-9-9-9-9-8-8-8-8-7-7-7-7-6-6-6-6-|
D:-9-9-9-9-8-8-8-8-7-7-7-7-6-6-6-6-|
A:-7-------6-------5-------4-------|
E:---------------------------------|

criaturas al poder
e:-------------------------------------|
B:-------------------------16b-16b-16b-|
G:-------------------------18b-18b-18b-|
D:-------------------------------------|
A:-2-----------------------------------|
E:-0-0-0-0-0-0-0-0-0-0-0-0-------------|


:----------------------------------------------------------------|
:-16b-16b-16b-16b-16b-16b-16b---10b-10b---9b--9b--7b-7b--5b------|
:-18b-18b-18b-18b-18b-18b-18b---12b-12b--11b-11b--9b-9b--7b------|
:----------------------------------------------------------------|
:--------------------------------------------------------------2-|
:--------------------------------------------------------------0-|
            
Submit corrections


        Criaturas Al Poder lessons Hard to play? Try these video lessons and learn fast Criaturas Al Poder lessons
        
↑ Back to top | Tablatures and chords for acoustic guitar and electric guitar, ukulele, drums are parodies/interpretations of the original songs. You may use it for private study, scholarship, research or language learning purposes only