Home » E » Eskorbuto »

Eskorbuto - Antes En Las Guerras Bass

Artists:  A B C D E F G H I J K L M N O P Q R S T U V W X Y Z # 

Antes En Las Guerras Bass

(ver. 1) Click to play this song!
Eskorbuto
(Intro)
1|---------------------------------------|
2|---------------------------------------|
3|---------------------------------------|X2
4|-9-9-9--5-5-5--7-7-7--12-12-12---------|


1|--------------------------------------|
2|--------------------------------------|
3|--------------------------------------|
4|-9-9-9--5-5-5--7-7-7--12-12-12--------|

 Antes en las guerras podían regresar,

1|--------------------------------------|
2|--------------------------------------|
3|--------------------------------------|
4|-9-9-9--5-5-5--7-7-7--12-12-12--------|
 volver a sus casas, volver a empezar,

1|---------------------------------------|
2|---------------------------------------|
3|---------------------------------------|X2
4|-9-9-9--5-5-5--7-7-7--12-12-12---------|
 una vida nueva, todo quedó atrás.

1|---------------------------------------|
2|---------------------------------------|
3|---------------------------------------|X3
4|-9-9-9--5-5-5--7-7-7--12-12-12---------|
 La la la la la la la la la la la

1|---------------------------------------|
2|---------------------------------------|
3|---------------------------------------|X2
4|-9-9-9--5-5-5--7-7-7--12-12-12---------|


1|--------------------------------------|
2|--------------------------------------|
3|--------------------------------------|
4|-9-9-9--5-5-5--7-7-7--12-12-12--------|
 Antes en las guerras podían regresar,

1|--------------------------------------|
2|--------------------------------------|
3|--------------------------------------|
4|-9-9-9--5-5-5--7-7-7--12-12-12--------|
 volver a sus casas, volver a empezar,

1|---------------------------------------|
2|---------------------------------------|
3|---------------------------------------|X2
4|-9-9-9--5-5-5--7-7-7--12-12-12---------|
 una vida nueva, todo quedó atrás.

1|---------------------------------------|
2|---------------------------------------|
3|---------------------------------------|X3
4|-9-9-9--5-5-5--7-7-7--12-12-12---------|
 La la la la la la la la la la la
            
Submit corrections

↑ Back to top | Tablatures and chords for acoustic guitar and electric guitar, ukulele, drums are parodies/interpretations of the original songs. You may use it for private study, scholarship, research or language learning purposes only