» » »

Eric Clapton - Sunshine Of Your Love Tabs

Artists:  A B C D E F G H I J K L M N O P Q R S T U V W X Y Z # 

Sunshine Of Your Love Tabs

(ver. 3) Click to play this song!
Eric Clapton
 Rating:
4/5 (4 votes)
                This is the main riff for the whole song.Just repeat it as many time as you want.

E---------------------------------------------------------------------------------
B----------------------------------------------------------------------------------
G---------------------------------------------------------------------------------
D-10--10-8--10---------------------------------------------------------------
A--------------------10--9--8--------------------------------------------------
E--------------------------------8--6--8-----------------------------------------



E---------------------------------------------------------------------------------
B----------------------------------------------------------------------------------
G---------------------------------------------------------------------------------
D-10--10-8--10---------------------------------------------------------------
A--------------------10--9--8--------------------------------------------------
E--------------------------------8--6--8-----------------------------------------



E---------------------------------------------------------------------------------
B----------------------------------------------------------------------------------
G---------------------------------------------------------------------------------
D-10--10-8--10---------------------------------------------------------------
A--------------------10--9--8--------------------------------------------------
E--------------------------------8--6--8-----------------------------------------
            
Submit corrections

↑ Back to top | Tablatures and chords for acoustic guitar and electric guitar, ukulele, drums are parodies/interpretations of the original songs. You may use it for private study, scholarship, research or language learning purposes only