» » »

Eric Clapton - Have You Ever Loved A Woman Tabs

Artists:  A B C D E F G H I J K L M N O P Q R S T U V W X Y Z # 

Have You Ever Loved A Woman Tabs

(ver. 1) Click to play this song!
Eric Clapton
 Rating:
4/5 (4 votes)

 Have You Ever Loved A Woman lessons Tabs too difficult? Try these video lessons and learn fast
 
                ============================================================================

Tuning:Standard (E A D G B e)

Legend:
~~=vibrato
b=bend
r=release bend to note after
p=pull off
h=hammer on
/=slide up
\=slide down

    [INTRO]
e|-----------8-------------------------------------------------------------|
B|---------8-8--13~~--------11b13r-11p10p8-----8---------------------------|
G|--10b12-----------------------------------10----10b12r-10p8---10---8-----|
D|------------------------------------------------------------10--10--10p8-|
A|-------------------------------------------------------------------------|
E|-------------------------------------------------------------------------|

    [0:06]
e|--------------11-13-13b15-13b15-13b15-13b15-13b15-13b15--13-11-13-13b15r-|
B|-----------13------------------------------------------------------------|
G|-------------------------------------------------------------------------|
D|-------------------------------------------------------------------------|
A|-10p8\6------------------------------------------------------------------|
E|-------------------------------------------------------------------------|

    [0:13]
e|--11----11---------------------------------------8----------8------------|
B|-----13----13----------------------------------8---8------8---13~~-------|
G|--------------10-8----10----8h9-------------/9---------/9----------------|
D|-------------------10----10----10--8-------------------------------------|
A|---------------------------------10--------------------------------------|
E|-------------------------------------------------------------------------|

    [0:20]
e|--11----13h15~~--17-15-13--12--------------------------------8-----------|
B|-----13------------------------13----13------------------8-8---11p10----8|
G|----------------------------------14----14-------8-10-12-------------10--|
D|----------------------------------------------10-------------------------|
A|-------------------------------------------------------------------------|
E|-------------------------------------------------------------------------|

    [0:27]
e|-----------------------8---------11b13---11b13-8-------------------------|
B|---------------------8---11p8--------------------11-8--------------------|
G|--12-8----10----8h10----------------------------------10b12-10-8----8h9--|
D|-------10----10--------------------------------------------------10----10|
A|-------------------------------------------------------------------------|
E|-------------------------------------------------------------------------|

    [0:32]
e|-------------------------------------------------------------------------|
B|--------------------8-11-------8-----------------8-11----8---------------|
G|---------------8-10------10b12---10-9----8-10-12------10---12p10p8--10---|
D|-----8\-----10------------------------10--------------------------10--10-|
A|--10---------------------------------------------------------------------|
E|-------------------------------------------------------------------------|

    [0:37]
e|-------------------------------------------------------------------------|
B|-------------------------------------------------------------------------|
G|--9----------------------------------------------------------------------|
D|----10p8-------------------------------8-----------------------8h10--8h10|
A|---------10p8\7\6---6h8p6~~~~~~~--8h10---10p8\6---8---6-8-8h10-----10----|
E|------------------8-----------------------------8---8--------------------|

    [0:44]
e|-----------------------------------------------------------------------8-|
B|-------------------------------11b13r--8---------------6-6-6-6-6------8--|
G|--8-10b12r-10p8h10-8h9--------------------10-8h9-------4-4-4-4-4--8-9----|
D|-----------------------10-10~~------------------10-----5-5-5-5-5---------|
A|--------------------------------------------------10\--------------------|
E|-------------------------------------------------------------------------|


    [VERSE] [0:53]
e|------------------------------8------------------------------------------|
B|------------------------------8------------------------------------------|
G|--------------------------------8----------------------------------------|
D|-------------------------------------------------------------------------|
A|-------------------------------------------------------------------------|
E|-------------------------------------------------------------------------|
  Have you ever loved a woman           so much, you tremble in pain?


e|-------8-8~-11-8-13b15------------------------------11b13-11-8-----------|
B|-----8--------------------------------------------8------------8---------|
G|-8h9------------------------------------------------------------10b12r8\-|
D|-------------------------------------------------------------------------|
A|-------------------------------------------------------------------------|
E|-------------------------------------------------------------------------|
                         Have you ever loved a woman,

e|-----------------------------------------------------------------8-11-8\-|
B|----------------------------------------------------------------8--------|
G|---------------------------------10b11r10-8h10p8----8h9------7h9---------|
D|-------------------------------------------------10-----10p8-------------|
A|-------------------------------------------------------------------------|
E|-------------------------------------------------------------------------|
   a, so much you tremble in pain?

e|-------------------------------------------------------------------------|
B|------------------------------8------------------------------------------|
G|------------------------------10b12r8------------------------------------|
D|-------------------------------------------------------------------------|
A|-------------------------------------------------------------------------|
E|-------------------------------------------------------------------------|
  All the time you know, yeah,           she bears another man's name.

e|----------------------------------------------------------||
B|--11b13r11--11-8------------------------------------------||
G|-----------------10p8----8h9-----------12-----------------||
D|----------------------10------10-10/14--------------------||
A|------------------------------------------10--10-10-10----||
E|----------------------------------------------------------||

Verse 2 is practically the same as Verse 1. The licks are in the same
hand position and everything.


Duane Allman has a solo right here before Clapton's. I don't have it yet, but I'll try 
get it posted as soon as possible.

    [SOLO 4:14] [Eric Clapton's]
e|------------11----13b15--13-11--------11---------------------------------|
B|--11h13--13----13--------------13-13-----13\---------13-15-13----15b17r15|
G|----------------------------------------------12h14-----------14---------|
D|-------------------------------------------------------------------------|
A|-------------------------------------------------------------------------|
E|-------------------------------------------------------------------------|

e|-------------------------------------------------------------------------|
B|-13-----13-13------13----13-13--15b17-15b17-15b17-15b17-15b17-15b17------|
G|----14--------14------14-------------------------------------------------|
D|-------------------------------------------------------------------------|
A|-------------------------------------------------------------------------|
E|-------------------------------------------------------------------------|

e|-------------------------------------------------------------------------|
B|--15b17-15b17-15b17-15b17-15b17-15b17-15b17r15--13~---13~--13~----13~-13~|
G|--15b17-15b17-15b17-15b17-15b17-15b17-15b17r15-----------------14--------|
D|-------------------------------------------------------------------------|
A|-------------------------------------------------------------------------|
E|-------------------------------------------------------------------------|

e|--16b18----16b18---15-13---------------------------------16b18--15-13----|
B|-------------------------15p13----13-13-15b17------13--------------------|
G|---------0---------------------14---------------14----14-----------------|
D|-------------------------------------------------------------------------|
A|-------------------------------------------------------------------------|
E|-------------------------------------------------------------------------|

e|-------------------------------------------------------------------------|
B|--15b17--15-13----13----13-13-13-15b17r16b18r17--15b17--13-13\-----------|
G|---------------14----14-----------------------------------------10b12----|
D|-------------------------------------------------------------------------|
A|-------------------------------------------------------------------------|
E|-------------------------------------------------------------------------|

e|----8--------------------------------------8-----------------------------|
B|--8---11p8--8-----8----------------------8---8-8--11b13-11b13-11b13------|
G|------------10b12-10b12---10-9-----7h8h9---------------------------------|
D|-------------------------------10----------------------------------------|
A|-------------------------------------------------------------------------|
E|-------------------------------------------------------------------------|

e|------------------------------------------------------------11b13-11b13--|
B|--11p8----8----------------------------------------------8---------------|
G|-------10---10b12r10-8----10----8----------------------------------------|
D|-----------------------10----10---10p8----8------------------------------|
A|---------------------------------------10---10p8\6-----------------------|
E|-------------------------------------------------------------------------|

e|--11p8-------------------------------------------------------------------|
B|-------11-11b13--11p8--------------------------------------8-8-----------|
G|----------------------10b12-10-8-10----8h9--------8h9\/8h9-----10-8------|
D|------------------------------------10------10-10------------------10----|
A|---------------------------------------------------------------------8-6-|
E|-------------------------------------------------------------------------|

e|----------------------------------------------------------11-13----------|
B|-------------------------------------------------------------------------|
G|-------------------------------------------------------------------------|
D|-------------------------------------------------------------------------|
A|--/10-10-10-10-10-10-10-10-10-10-10-10-10-10-10-10-10-10-----------------|
E|-------------------------------------------------------------------------|

Thats all I have so far,
hope you like it.

 *ROCK ON*

============================================================================
            
Submit corrections


        Have You Ever Loved A Woman lessons Hard to play? Try these video lessons and learn fast Have You Ever Loved A Woman lessons
        
↑ Back to top | Tablatures and chords for acoustic guitar and electric guitar, ukulele, drums are parodies/interpretations of the original songs. You may use it for private study, scholarship, research or language learning purposes only