» » »

Eric Clapton - Badge Tabs

Artists:  A B C D E F G H I J K L M N O P Q R S T U V W X Y Z # 

Badge Tabs

(ver. 2) Click to play this song!
Eric Clapton
 Rating:
4/5 (4 votes)
                Intro(bass riff)

E—0–3–4–5----------------------------------------------------------------------------
A--------------3------3 slide–5–5-5-5-----------------------------------------------
D------------------2----------------------------------------------------------------
G------------------------------------------------------------------------------------
B------------------------------------------------------------------------------------
E------------------------------------------------------------------------------------
Play the beat in the song

        Am            D             Em
E----5--------------------------7-------------------------------------------------
A----7-------------5------------7-------------------------------------------------
D----7-------------7------------9--------------------------------------------------
G----5-------------7------------9-------------------------------------------------
B----5-------------7------------8------------------------------------------------
E----5--------------------------7---------------------------------------------------

Chorus
          C             Am           Bm         Am       
E-------------------5-----------7----------5---------------------------------------
A-------3-----------7-----------9----------7----------------------------------------
D-------5-----------7-----------9----------7----------------------------------------
G-------5-----------5-----------9----------5----------------------------------------
B-------5-----------5-----------7----------5----------------------------------------
E-------------------5-----------7----------5---------------------------------------

Outro    During the outro these chords are picked out if you listen to the song you can see how easy it is.
          C              G          D
E---------0--------------3-----------------------------------------------------------
A---------3--------------2---------------------------------------------
D---------2--------------0-----------0---------------------------
G---------0--------------0-----------2-----------------------------------------------
B---------1--------------0-----------3-----------------------------------------------
E---------0--------------1-----------2-----------------------------------------------
            
Submit corrections

↑ Back to top | Tablatures and chords for acoustic guitar and electric guitar, ukulele, drums are parodies/interpretations of the original songs. You may use it for private study, scholarship, research or language learning purposes only