» » »

Eric Clapton - After Midnight Tabs

Artists:  A B C D E F G H I J K L M N O P Q R S T U V W X Y Z # 

After Midnight Tabs

(ver. 2) Click to play this song!
Eric Clapton
 Rating:
4/5 (4 votes)

 After Midnight lessons Tabs too difficult? Try these video lessons and learn fast
 
                Gtr I (E A D G B E) - 'Eric Clapton - Electric Guitar'
Gtr II (E A D G B E) - 'Eric Clapton - Electric Guitar'


 Intro
  Q=122
  F                       C               F  Eb    C
 4/4
  Gtr II
  W          +W           S S S S S S a E  e S S S  S  S S
|-1--------|-(1)--------|-----------------------------------|
|-1--------|-(1)--------|-5-----5---5-----10---8---(5)------|
|-2--------|-(2)--------|-5-----5---5-----10---8----5-------|
|-3--------|-(3)--------|-5-7p5-------5h7-10-8---------5h7--|
|-3--------|-(3)--------|-----------------------------------|
|-1--------|-(1)--------|-----------------------------------|


                F    Eb    C
  e S S S S S S  s S S S S S S S
|--------------------------------|
|-5---5---5-----10-----8---5-----|
|-5---5---5-x---10-----8---5-----|
|-5-5-----------10---8-------5h7-|
|--------------------------------|
|--------------------------------|


                F  Eb    C                 F  Eb    C
  S S S S S S E  e S S S S E   E S S S S E  E S S S S  E
|----------------------------|------------------------------||
|-5-----5---5---10---8---5---|-5---5---5---10---8---5-(5)---||
|-5-----5---5---10---8---5---|-5---5---5---10---8---5--5----||
|-5-7p5-------5-10-8-------5-|-5-5-------5-10-8-----5--5----||
|----------------------------|------------------------------||
|----------------------------|------------------------------||


   1st - 3rd Verses
    $
    C             F  Eb    C     Eb          F
    S S S S S S E  E S S S S e   E S S S S E  E  S  S  +S    S  S S
||-----------------------------|------------------------------------|
||o-5-----5---5---10---8---5-5-|-8---8---8---10----10-(10)--10------|
||--5-----5---5---10---8---5-5-|-8---8---8---10----10-(10)--10------|
||--5-7p5-------5-10-8-------5-|-8-8-------8-10-10---------(10)-5h7-|
||o----------------------------|------------------------------------|
||-----------------------------|------------------------------------|


  C               F  Eb    C                       F  Eb    C
  S S S S +S  S E  E S S S S  E    S S S S +S  S E  E S S S S  E
|--------------------------------|---------------------------------|
|-5-----5-(5)-5---10---8------5--|-5-----5-(5)-5---10---8------5---|
|-5-x---5-(5)-5---10---8------5--|-5-x---5-(5)-5---10---8------5---|
|-5---5---------5-10-8-----5-(5)-|-5---5---------5-10-8-----5-(5)--|
|--------------------------------|---------------------------------|
|--------------------------------|---------------------------------|


              F  Eb    C       Eb             F
  e S S S S E  E S S S S  E    S  S S S S S E  E  S  S S  S  +E
|----------------------------|------------------------------------|
|-5---5---5---10---8---5-(5)-|-8------8---8-8-10----10---10-(10)\-|
|-5---5---5---10---8---5--5--|-8------8---8-8-10----10---10-(10)\-|
|-5-5-------5-10-8-----5--5--|-8h10p8-------8-10-10------10-(10)\-|
|----------------------------|------------------------------------|
|----------------------------|------------------------------------|


  C             F  Eb    C                   F  Eb    C
  E S S S S S S  E S S S S E   S S S S S S e  E S S S S E
|----------------------------|-----------------------------|
|-5---5---5-----10---8-----5-|-5-----5---5---10---8-----5--|
|-5---5---5---x-10---8-----5-|-5-----5---5---10---8-----5--|
|-5-5-------5---10-8-----5---|-5-7p5-------5-10-8-----5----|
|----------------------------|-----------------------------|
|----------------------------|-----------------------------|


                                     F
  S S S S S S S S S S S S S S S  S    E  S  S S  S  E   E   S  S S  S  E
|----------------------------------|-------------------------------------|
|-5-----5---5-----------5---5------|-10----10---10-----10-----10---10----|
|-5-----5---5-----5-----5---5------|-10----10---10-----10-----10---10----|
|-5-7p5-------5-5---7p5-------5s10-|-10-10---------10-(10)-10---------10-|
|----------------------------------|-------------------------------------|
|----------------------------------|-------------------------------------|


  F
    E   S  S S  S  E   E   S  S S  S  E
|---------------------------------------|
|--10-----10---10-----10-----10---10-10-|
|--10-----10---10-----10-----10---10-10-|
|-(10)-10---------10-(10)-10------10-10-|
|---------------------------------------|
|---------------------------------------|


  G
   E  S  S S  S  E   E   S  S S  S  E    E  S  S S  S  E   E   S  S S  S  E
|-------------------------------------|--------------------------------------||
|-12----12---12-----12-----12---12-12-|-12----12---12-----12-----12---12-12--||
|-12----12---12-----12-----12---12-12-|-12----12---12-----12-----12---12-12--||
|-12-12---------12-(12)-12------12-12-|-12-12---------12-(12)-12------12-12--||
|-------------------------------------|--------------------------------------||
|-------------------------------------|--------------------------------------||


 Chorus
  C             F  Eb    C     Eb            F
  S S S S S S E  E S S S S E   S S S S S S E  E  S  S S  E S
|----------------------------|--------------------------------|
|-5-----5---5---10---8---5-5-|-8-----8---8-8-10----10---10----|
|-5-----5---5---10---8---5-5-|-8-5---8---8-8-10----10---10----|
|-5---5-------5-10-8-----5-5-|-8---8-------8-10-10------------|
|----------------------------|--------------------------------|
|----------------------------|--------------------------------|


                               1.
                      To Coda
  C             F  Eb           C             F  Eb    C
  E S S S S S S  E S S S S E    S S S S S S E  E S S S S E
|-----------------------------|-----------------------------||
|-5---5---5-----10---8-----5--|-5-----5---5---10---8-----5-o||
|-5---5---5---x-10---8-----5--|-5-----5---5---10---8-----5--||
|-5-5-------5---10-8-----5----|-5-7p5-------5-10-8-----5----||
|-----------------------------|----------------------------o||
|-----------------------------|-----------------------------||


                               Guitar Solo
  2.
  C             F  Eb    C      C                     F   Eb    C
  Gtr I
                                                       ~~~~~~~~~~~~~~~~
  W                             Q         E       +E   Q.         +E
|----------------------------||------------------------8----------(8)\-|
|----------------------------||---------/11b13---(11)------------------|
|----------------------------||----------------------------------------|
|----------------------------||----------------------------------------|
|----------------------------||----------------------------------------|
|----------------------------||----------------------------------------|
|
| Gtr II
| S S S S S S E  E S S S S E    S S S S   S    S   E   E  S S S S  e
|----------------------------||----------------------------------------|
|-5-----5---5---10---8-----5-||-5-----5--------5------10----8---5--5---|
|-5-----5---5---10---8-----5-||-5-----5--------5------10----8---5--5---|
|-5-7-5-------5-10-8-----5---||-5-7p5--------------5--10--8--------5---|
|----------------------------||----------------------------------------|
|----------------------------||----------------------------------------|


  Eb                  F
                       ~~~~~~~~~~~~~~~~~~~~~~~~
  Q       E       +E   Q.                 +E
|----------------------8------------------(8)\---|
|-------/11b13---(11)----------------------------|
|------------------------------------------------|
|------------------------------------------------|
|------------------------------------------------|
|------------------------------------------------|
|
| E S S   S    S   E   E   S  S  +S    S   S   S
|------------------------------------------------|
|-8---8--------8------10-----10-(10)--10---------|
|-8---8--------8------10-----10-(10)--10---------|
|-8-8--------------8--10--10---------(10)--5h==7-|
|------------------------------------------------|
|------------------------------------------------|


  C                     F  Eb    C
                         ~~
  Q         E       +E   H
|------------------------8-------------|
|---------/11b13---(11)----------------|
|--------------------------------------|
|--------------------------------------|
|--------------------------------------|
|--------------------------------------|
|
| S S S S  +S    S   E   E S S S S  E
|--------------------------------------|
|-5-----5--(5)---5------10---8------5--|
|-5-x---5--(5)---5------10---8------5--|
|-5---5--------------5--10-8-----5-(5)-|
|--------------------------------------|
|--------------------------------------|


                                 F  Eb            C
                  ~
    |-----------3------------|    |--------3--------|
    E       +E    Q          Q    Q    Q            Q
|-/11b12---(11)---8-------------------------------------------|
|---------------------------11----8---------------------------|
|-------------------------------------10b10.5-------8b8.5-----|
|-------------------------------------------------------------|
|-------------------------------------------------------------|
|-------------------------------------------------------------|
|
|   S    S      S   S +S  S    E  E S         S S S        E
|-------------------------------------------------------------|
|---5---------------5-(5)-5------10-----------8------------5--|
|---5----x----------5-(5)-5------10-----------8------------5--|
|---5-----------5--------------5-10-8-------------5-------(5)-|
|-------------------------------------------------------------|
|-------------------------------------------------------------|


                      F   Eb    C
                       ~~~~~~~~~~~~~~~~
  Q       E       +E   Q.         +E
|----------------------8----------(8)\-|
|-------/11b13---(11)------------------|
|--------------------------------------|
|--------------------------------------|
|--------------------------------------|
|--------------------------------------|
|
| e S S   S    S   E   E  S S S S  E
|--------------------------------------|
|-5---5--------5------10----8---5-(5)--|
|-5---5--------5------10----8---5--5---|
|-5-5--------------5--10--8-----5--5---|
|--------------------------------------|
|--------------------------------------|


  Eb                     F
                          ~~~~~~~~~~~~~~~~~~~~
  Q          E       +E   Q.             +E
|-------------------------8--------------(8)\-|
|----------/11b13---(11)----------------------|
|---------------------------------------------|
|---------------------------------------------|
|---------------------------------------------|
|---------------------------------------------|
|
| S  S S S   S    S   E   E   S  S S  S  +E
|---------------------------------------------|
|-8------8--------8---8--10-----10---10-(10)\-|
|-8------8--------8---8--10-----10---10-(10)\-|
|-8h10p8--------------8--10--10------10-(10)\-|
|---------------------------------------------|
|---------------------------------------------|


  C                    F  Eb    C
                        ~~
  Q      E       +E     H
|-----------------------8-----------|
|-------11b13---(11)----------------|
|-----------------------------------|
|-----------------------------------|
|-----------------------------------|
|-----------------------------------|
|
| E S S  S    S   S  S  E S S S S E
|-----------------------------------|
|-5---5-------5--------10---8-----5-|
|-5---5-------5------x-10---8-----5-|
|-5-5-------------5----10-8-----5---|
|-----------------------------------|
|-----------------------------------|


                              F  Eb            C
                 ~
   |----------3-----------|    |--------3--------|
   E       +E    Q        Q    Q    Q            Q
|-11b12---(11)---8---------------------------------------|
|------------------------11----8-------------------------|
|----------------------------------10b10.5-------8b8.5---|
|--------------------------------------------------------|
|--------------------------------------------------------|
|--------------------------------------------------------|
|
|  S    S      S   S S S    e  E S         S S S       E
|--------------------------------------------------------|
|--5---------------5---5------10-----------8-----------5-|
|--5---------------5---5------10-----------8-----------5-|
|--5----7p=====5------------5-10-8-------------5---------|
|--------------------------------------------------------|
|--------------------------------------------------------|


  C
   S      +E     S   +S    S      +E      E.       S      +E      E
|----------------8---(8)------------------8-----------------------8------|
|------------------------------------------------------------------------|
|-10b12==(10)--(10)-(10)r-10b12==(10)---(10)r-----10b12==(10)---(10)r----|
|------------------------------------------------------------------------|
|------------------------------------------------------------------------|
|------------------------------------------------------------------------|
|
|  S       S S   S    S    S       S  S   S   S S  S       S  S   S    S
|------------------------------------------------------------------------|
|--5-------------5---------5-----------------------5----------5----------|
|--5-------------5---------5--------------5--------5----------5----------|
|--5-------7p5---------------------5--5-------7p5-----------------5s==10-|
|------------------------------------------------------------------------|
|------------------------------------------------------------------------|


  F
   E  S.        +E        E     S.      +E      S +E      E
|-----------------------------------------------------------|
|-11---------------------11---------------------------------|
|----10b12=====(10)------------10r=====(10)-----8-(8)-------|
|--------------------------------------------------------10-|
|-----------------------------------------------------------|
|-----------------------------------------------------------|
|
|  E  S      S      S  S     E      E        S  S  S   S  E
|-----------------------------------------------------------|
|-10--------10--------10-----------10----------10-----10----|
|-10--------10--------10-----------10----------10-----10----|
|-10-10---------------------10----(10)------10-----------10-|
|-----------------------------------------------------------|
|-----------------------------------------------------------|


    S  S  S  S S  S  S S   S   S  S  S  S  S   S   S
|--11p=8----11p8----11p8------11p=8----11p=8h(11)-11p|
|---------8-------8--------8---------8---------------|
|----------------------------------------------------|
|----------------------------------------------------|
|----------------------------------------------------|
|----------------------------------------------------|
|
|   E     S  S S  S  E     E      S  S  S  S   E
|----------------------------------------------------|
|--10-------10---10-------10--------10----10--10-----|
|--10-------10---10-------10--------10----10--10-----|
|-(10)---10---------10---(10)----10-------10--10-----|
|----------------------------------------------------|
|----------------------------------------------------|


  G
   S S  S  S +S   S  E   E   E     S  S  S     +S
|--8---11p=8-(8)-11p=8--10---8----------------------|
|----8----------------------------11--8-------------|
|---------------------------------------10b12-(10)--|
|---------------------------------------------------|
|---------------------------------------------------|
|---------------------------------------------------|
|
|  E    S  S  S   S  E   E   S  S  S  S  E
|---------------------------------------------------|
|-12------12-----12-----12-----12----12-12----------|
|-12------12-----12-----12-----12----12-12----------|
|-12---12-----------12-(12)-12-------12-12----------|
|---------------------------------------------------|
|---------------------------------------------------|


   E  S      +S  S  S  S S   S  S a  S  S +E       E
|----------------------------------------------------||
|--8-------------------------------------------------||
|----10pb12r(10)-8----10-8--------------8-(8)\-------||
|------------------10-------10--8-------8-(8)\-------||
|---------------------------------8h10---------------||
|----------------------------------------------------||
|
|  E  S       S  S  S  E     E       S  S  S    S  E
|----------------------------------------------------||
|-12---------12----12-------12---------12------12-12-||
|-12---------12----12-------12---------12------12-12-||
|-12-12---------------12---(12)-----12---------12-12-||
|----------------------------------------------------||
|----------------------------------------------------||


 Chorus
  C           F    Eb  C
  W
|------------------------------|
|------------------------------|
|------------------------------|
|------------------------------|
|------------------------------|
|------------------------------|
|
| S e S S S e  e S S S S S  S
|------------------------------|
|-5-5-5---5-5-10---8---5-5-(5)-|
|-5-5-5---5-5-10---8---5-5-(5)-|
|-5-5-5---5-5-10---8---5-5-(5)-|
|------------------------------|
|------------------------------|


  Eb            F                    C           F    Eb    C
  Gtr II
  s S S S S S e  e S  S S  S  S  S   E S S S S e  E S S S S E
|----------------------------------|---------------------------|
|-8---8-----8-8-10---10---10-10-10-|-5---5---5-5-10---8---8-5--|
|-8---8-----8-8-10---10---10-10-10-|-5-x-5---5-5-10---8---8-5--|
|-8---8-----8-8-10---10---10-10-10-|-5---5---5-5-10---8---8-5--|
|----------------------------------|---------------------------|
|----------------------------------|---------------------------|


                   D.S. al Coda &
                  F  Eb      C
  S S S S S S S S  e S S S S E
|-------------------------------||
|-5-----5---5-----10---8---8-5--||
|-5-----5---5-----10---8---8-5--||
|-5-7p5-------7p5-10-8-----8-5--||
|-------------------------------||
|-------------------------------||


                                   Outro
  C               F  Eb    C        C             F  Eb    C
  S S S S S S S S  E S S S S S S    S S S S S S E  E S S S S e
|--------------------------------||------------------------------|
|-5-----5---5-----10---8---5-----||-5-----5---5---10---8---5-5---|
|-5-----5---5-----10---8---5-5-7-||-5-----5---5---10---8---5-5---|
|-5-7p5-------7p5-10-8-----5-5-7-||-5-7p5-------5-10-8-------5---|
|--------------------------------||------------------------------|
|--------------------------------||------------------------------|


  Eb          F                        C               F  Eb    C
  Gtr I
  W                                    H                Q     E    E
|------------------------------------|----------------------------11b13===|
|------------------------------------|------------------------------------|
|------------------------------------|------------------------------------|
|------------------------------------|------------------------------------|
|------------------------------------|------------------------------------|
|------------------------------------|------------------------------------|
|
| Gtr II
| E S S S S E  E  S  S  +S    S  S S   S S S S +S  S E  E S S S S  E
|------------------------------------|------------------------------------|
|-8---8---8---10----10-(10)--10------|-5-----5-(5)-5---10---8------5------|
|-8---8---8---10----10-(10)--10------|-5-x---5-(5)-5---10---8------5------|
|-8-8-------8-10-10---------(10)-5h7-|-5---5---------5-10-8-----5-(5)-----|
|------------------------------------|------------------------------------|
|------------------------------------|------------------------------------|


                               F      Eb        C
   +E      E    S   E    S      +S  S  S  +S  S  S  E
|-(11)r---11----8--------------------------------------|
|------------------11----8------(8)-8------------------|
|-----------------------10b12==(10)---10r(10)-8----10--|
|-----------------------------------------------10-----|
|------------------------------------------------------|
|------------------------------------------------------|
|
|   S   S  S S +S   S E          E     S   S  S  S  E
|------------------------------------------------------|
|---5--------5-(5)--5-----------10---------8--------5--|
|---5---x----5-(5)--5-----------10---------8--------5--|
|---5------5----------5---------10-----8---------5-(5)-|
|------------------------------------------------------|
|------------------------------------------------------|


                      F  Eb    C
  E        E    Q      H
|----------------------------------|
|----------------------------------|
|-8b8.5----------------------------|
|---------10\----------------------|
|----------------------------------|
|----------------------------------|
|
| S     S  S  S S S E  E S S S S e
|----------------------------------|
|-5-----------5---5---10---8---5-5-|
|-5-----------5---5---10---8---5-5-|
|-5-----7p=5--------5-10-8-------5-|
|----------------------------------|
|----------------------------------|


  Eb          F                        C               F  Eb    C
                                                                       ~~
  W                                    H                Q     E    S   S
|------------------------------------|-----------------------------------|
|------------------------------------|----------------------------11s=13-|
|------------------------------------|-----------------------------------|
|------------------------------------|-----------------------------------|
|------------------------------------|-----------------------------------|
|------------------------------------|-----------------------------------|
|
| E S S S S E  E  S  S  +S    S  S S   S S S S +S  S E  E S S S S  E
|------------------------------------|-----------------------------------|
|-8---8---8---10----10-(10)--10------|-5-----5-(5)-5---10---8------5-----|
|-8---8---8---10----10-(10)--10------|-5-x---5-(5)-5---10---8------5-----|
|-8-8-------8-10-10---------(10)-5h7-|-5---5---------5-10-8-----5-(5)----|
|------------------------------------|-----------------------------------|
|------------------------------------|-----------------------------------|


                         F        Eb     C                       F  Eb    C
    ~~~~
   +Q         S   E    S  S S      S S S  E.       W
|------------11----------------------------------|----------------------------|
|-(13)-----------13------------------------------|----------------------------|
|---------------------12s10-8b8.5------8---------|----------------------------|
|---------------------------------10p8---10\-----|----------------------------|
|------------------------------------------------|----------------------------|
|------------------------------------------------|----------------------------|
|
|   S  S S S +S   S E     E        S S S  S   E    S S S S S S E  E S S S S e
|------------------------------------------------|----------------------------|
|---5------5-(5)--5------10----------8--------5--|-5-----5---5---10---8---5-5-|
|---5--x---5-(5)--5------10----------8--------5--|-5-----5---5---10---8---5-5-|
|---5----5----------5----10--------8------5--(5)-|-5-7p5-------5-10-8-------5-|
|------------------------------------------------|----------------------------|
|------------------------------------------------|----------------------------|


  Eb          F                        C               F  Eb    C
  W                                    H                Q     E    E
|------------------------------------|-----------------------------------|
|------------------------------------|----------------------------16b18--|
|------------------------------------|-----------------------------------|
|------------------------------------|-----------------------------------|
|------------------------------------|-----------------------------------|
|------------------------------------|-----------------------------------|
|
| E S S S S E  E  S  S  +S    S  S S   S S S S +S  S E  E S S S S  E
|------------------------------------|-----------------------------------|
|-8---8---8---10----10-(10)--10------|-5-----5-(5)-5---10---8------5-----|
|-8---8---8---10----10-(10)--10------|-5-x---5-(5)-5---10---8------5-----|
|-8-8-------8-10-10---------(10)-5h7-|-5---5---------5-10-8-----5-(5)----|
|------------------------------------|-----------------------------------|
|------------------------------------|-----------------------------------|


                              F  Eb      C
   +E     E    S     +E.    a  E  E    S  S  E
|--------13-------------------------------------|
|-(16)--------16b18-(16)---------13---15p13-----|
|--------------------------13h14------------14--|
|-----------------------------------------------|
|-----------------------------------------------|
|-----------------------------------------------|
|
|   S  S  S S +S      S  E     E  S S  S  S  E
|-----------------------------------------------|
|---5-------5-(5)-----5-------10----8--------5--|
|---5--x----5-(5)-----5-------10----8--------5--|
|---5-----5--------------5----10--8-------5-(5)-|
|-----------------------------------------------|
|-----------------------------------------------|


                      F  Eb    C
   E.      +S   Q      H
|----------------------------------|
|-13------(13)\--------------------|
|----------------------------------|
|----------------------------------|
|----------------------------------|
|----------------------------------|
|
|  S  S S   S   S S E  E S S S S e
|----------------------------------|
|--5--------5-----5---10---8---5-5-|
|--5--------5-----5---10---8---5-5-|
|--5--7p5-----------5-10-8-------5-|
|----------------------------------|
|----------------------------------|


  Gtr II
  E S S S S E  E  S  S  +S    S  S S   S S S S +S  S E  E S S S S  E
|------------------------------------|---------------------------------|
|-8---8---8---10----10-(10)--10------|-5-----5-(5)-5---10---8------5---|
|-8---8---8---10----10-(10)--10------|-5-x---5-(5)-5---10---8------5---|
|-8-8-------8-10-10---------(10)-5h7-|-5---5---------5-10-8-----5-(5)--|
|------------------------------------|---------------------------------|
|------------------------------------|---------------------------------|


                                   F       Eb          C
  Gtr I
  S  S E    S       +S   S  S       +S   S  E        E    S       +S
|------8---11b11.5-(11)----11b11.5-(11)----11b11.5---8----------------|
|-8h11------------------11--------------11---------------11b11.5-(11)-|
|---------------------------------------------------------------------|
|---------------------------------------------------------------------|
|---------------------------------------------------------------------|
|---------------------------------------------------------------------|
|
| Gtr II
| S  S S S +S        S   E           E      S      S S S  E
|---------------------------------------------------------------------|
|-5------5-(5)-------5--------------10-------------8------5-----------|
|-5--x---5-(5)-------5--------------10-------------8------5-----------|
|-5----5-----------------5----------10------8----------5-(5)----------|
|---------------------------------------------------------------------|
|---------------------------------------------------------------------|


                 F  Eb    C
  ~~
  Q.           E  H
|-8---------------------------|
|-----------------------------|
|-----------------------------|
|-----------------------------|
|-----------------------------|
|-----------------------------|
|
| S  S S S S S E  E S S S S e
|-----------------------------|
|-5------5---5---10---8---5-5-|
|-5------5---5---10---8---5-5-|
|-5--7p5-------5-10-8-------5-|
|-----------------------------|
|-----------------------------|


  Eb          F
  W
|------------------------------------|
|------------------------------------|
|------------------------------------|
|------------------------------------|
|------------------------------------|
|------------------------------------|
|
| E S S S S E  E  S  S  +S    S  S S
|------------------------------------|
|-8---8---8---10----10-(10)--10------|
|-8---8---8---10----10-(10)--10------|
|-8-8-------8-10-10---------(10)-5h7-|
|------------------------------------|
|------------------------------------|


  C                       F       Eb         C
  Q        S   S S  S      +S   S   S  +S  S  S  E
|----------8----------------------------------------|
|-------------11-8-------------11-(11)--------------|
|------------------10b12==(10)-10--10r(10)-8----10--|
|--------------------------------------------10-----|
|---------------------------------------------------|
|---------------------------------------------------|
|
| S S S S +S   S E          E       S   S  S  S  E
|---------------------------------------------------|
|-5-----5-(5)--5-----------10-----------8--------5--|
|-5-x---5-(5)--5-----------10-----------8--------5--|
|-5---5----------5---------10-------8---------5-(5)-|
|---------------------------------------------------|
|---------------------------------------------------|


                        F  Eb    C                     F  Eb    C
     ~~~
  S  E.      E     +E    H               W
|--------------------------------------|-----------------------------|
|--------------------------------------|-----------------------------|
|-9------------------------------------|-----------------------------|
|---10------10----(10)\----------------|-----------------------------|
|--------------------------------------|-----------------------------|
|--------------------------------------|-----------------------------|
|
| S  S  S S +S  S   E    E S S S S  E    S S S S S S E  E S S S S e
|--------------------------------------|-----------------------------|
|-5-------5-(5)-5-------10---8------5--|-5-----5---5---10---8---5-5--|
|-5--x----5-(5)-5-------10---8------5--|-5-----5---5---10---8---5-5--|
|-5-----5-----------5---10-8-----5-(5)-|-5-7p5-------5-10-8-------5--|
|--------------------------------------|-----------------------------|
|--------------------------------------|-----------------------------|


  Eb          F                        C               F  Eb    C
  Gtr II
  E S S S S E  E  S  S  +S    S  S S   S S S S +S  S E  E S S S S  E
|------------------------------------|---------------------------------|
|-8---8---8---10----10-(10)--10------|-5-----5-(5)-5---10---8------5---|
|-8---8---8---10----10-(10)--10------|-5-x---5-(5)-5---10---8------5---|
|-8-8-------8-10-10---------(10)-5h7-|-5---5---------5-10-8-----5-(5)--|
|------------------------------------|---------------------------------|
|------------------------------------|---------------------------------|


                                  F    Eb       C
  Gtr I
                                                   |3-|
  S  S      +S  S  S     +S   S S  S S  S S +S  S  E  S
|-8-----------------------------------------------------|
|----8----------8--------------------8------------------|
|---10pb11r(10)----8b8.5-(8)----8-10---10p8-(8)-8-------|
|----------------------------10-------------------10p=8h|
|-------------------------------------------------------|
|-------------------------------------------------------|
|
| Gtr II
| S  S       S  S +S      S   E    E    S S  S  S  E
|-------------------------------------------------------|
|-5-------------5-(5)-----5-------10------8--------5----|
|-5--x----------5-(5)-----5-------10------8--------5----|
|-5----------5----------------5---10----8-------5-(5)---|
|-------------------------------------------------------|
|-------------------------------------------------------|


                      F  Eb    C
   ~~~~~~~~~~~~~~~~~~~
   Q.            +E    H
|----------------------------------*|
|----------------------------------*|
|----------------------------------*|
|-10------------(10)\--------------*|
|----------------------------------*|
|----------------------------------*|
|
|  S  S S S S S   E    E S S S S e
|----------------------------------*|
|--5------5---5-------10---8---5-5-*|
|--5------5---5-------10---8---5-5-*|
|--5--7p5---------5---10-8-------5-*|
|----------------------------------*|
|----------------------------------*|
            
Submit corrections


        After Midnight lessons Hard to play? Try these video lessons and learn fast After Midnight lessons
        
↑ Back to top | Tablatures and chords for acoustic guitar and electric guitar, ukulele, drums are parodies/interpretations of the original songs. You may use it for private study, scholarship, research or language learning purposes only