» » »

Enter Shikari - Undercover Agents Tabs

Artists:  A B C D E F G H I J K L M N O P Q R S T U V W X Y Z # 

Undercover Agents Tabs

(ver. 1) Click to play this song!
Enter Shikari
 Rating:
4.3/5 (9 votes)

 Undercover Agents lessons Tabs too difficult? Try these video lessons and learn fast
 
                1:05
d|---------------------------------------------------------------|
A|---------------------------------------------------------------|
F|--------------------10---------------------------10------------|
C|12p10-8---8h10-10h12--12--10--10p8-8--8h10-10h12----12-10-8----|
G|---------------------------------------------------------------|
D|---------------------------------------------------------------|


1:38 (not sure about this bit let me know if you have any ideas)
d|---------------------------------------------------------------|
A|----6----------6-----------6-------------6---------------------|
F|--0---0-----0-----0-----0-----0-------0-----0------------------|
C|----------------------5-----------7----------------------------|
G|6--------8-----------------------------------------------------|
D|---------------------------------------------------------------|


chorus
guitar 1
d|----------------------13---------------------------------------|
A|15-15-13-15-13--15-15----15-13---------------------------------|
F|---------------------------------------------------------------|
C|---------------------------------------------------------------|
G|---------------------------------------------------------------|
D|---------------------------------------------------------------|

guitar 2

d|6666--66666----------------------------------------------------|
A|6666--66666----------------------------------------------------|
F|---------------------------------------------------------------|
C|---------------------------------------------------------------|
G|---------------------------------------------------------------|
D|---------------------------------------------------------------|

live rory combines the two and plays
guitar 1
d|----------------------13---------------------------------------|
A|15-15-13-15-13--15-15----15-13---------------------------------|
F|15-15-15-15-15--15-15-15-15-15---------------------------------|
C|---------------------------------------------------------------|
G|---------------------------------------------------------------|
D|---------------------------------------------------------------|
            
Submit corrections


        Undercover Agents lessons Hard to play? Try these video lessons and learn fast Undercover Agents lessons
        
↑ Back to top | Tablatures and chords for acoustic guitar and electric guitar, ukulele, drums are parodies/interpretations of the original songs. You may use it for private study, scholarship, research or language learning purposes only