» » »

Enter Shikari - The Bank Of England Tabs

Artists:  A B C D E F G H I J K L M N O P Q R S T U V W X Y Z # 

The Bank Of England Tabs

(ver. 1) Click to play this song!
Enter Shikari
 Rating:
4.4/5 (8 votes)

 The Bank Of England  lessons Tabs too difficult? Try these video lessons and learn fast
 
                [Intro]

e ----------------------|----------------------|
B ----------------------|----------------------|
G ----------------------|----------------------|
D ----------------------|----------------------|
A -7/10----10-10\5-5-0--|---7/10----10-10-0-2--|
E -7/10----10-10\5-5-0--|---7/10----10-10-0-2--|

[Verse]

e -----------------------------------|-----------------------------------|
B -----------------------------------|-----------------------------------|
G ---4---4p2----------------4-4-4-4--|---4---4p2----------------4-4-4-4--|
D -2---2-----2-5p4-2-4h5----2-2-2-2--|-2---2-----2-5p4-2-4h5----2-2-2-2--|
A -----------------------------------|-----------------------------------|
E -----------------------------------|-----------------------------------|

[Bridge]

e -12-------14--------------------|-12-------14--------------------|
B ----12-12----12-12---10b12br10--|----12-12----12-12---10b12br10--|
G --------------------------------|--------------------------------|
D --------------------------------|--------------------------------|
A --------------------------------|--------------------------------|
E --------------------------------|--------------------------------|

[Chorus]

e ----------------------|----------------------|
B ----------------------|----------------------|
G ----------------------|----------------------|
D ----------------------|----------------------|
A -7/10----10-10\5-5-0--|---7/10----10-10-0-2--|
E -7/10----10-10\5-5-0--|---7/10----10-10-0-2--|
            
Submit corrections


        The Bank Of England  lessons Hard to play? Try these video lessons and learn fast The Bank Of England  lessons
        
↑ Back to top | Tablatures and chords for acoustic guitar and electric guitar, ukulele, drums are parodies/interpretations of the original songs. You may use it for private study, scholarship, research or language learning purposes only