» » »

Enter Shikari - Arguing With Thermometers Tabs

Artists:  A B C D E F G H I J K L M N O P Q R S T U V W X Y Z # 

Arguing With Thermometers Tabs

(ver. 1) Click to play this song!
Enter Shikari
 Rating:
4/5 (12 votes)

 Arguing With Thermometers lessons Tabs too difficult? Try these video lessons and learn fast
 
                TUNING: D Tuning (D G C F A d)

KEY:
~~ = Let Ring
/ = Slide Up
h = Hammer On



d|------------------------------|
A|-----------2~~----------------|
F|-----------5~~----------------|
C|-----------2~~----------------|
G|-----------3~~----------------|
D|-0h2222-------0-2-5-4-0--2--2-|


d|-------------------|
A|-----------2~~-----|
F|-----------5~~-----|
C|-----------2~~-----|
G|-----------3~~-----|
D|-0h2222-------5202-|


d|-------------------------------------|
A|-----------2~~-----------------------|
F|-----------5~~-----------------------|
C|-----------2~~-----------------------|
G|-----------3~~-----------------------|
D|-0h2222-------0-2-5-4-0--2--2--22000-|


d|--------------------------------|
A|-----------2~~------------------|
F|-----------5~~------------------|
C|-----------2~~------------------|
G|-----------3~~------------------|
D|-0h2222-------5202----0-2-5-4-0-|


d|-9-9--9-9-9--4-4-4-4---5---5---9-9--9-9-9--4-4-4-4---0---0--|
A|-1010-101010-5-5-5-5---5---5---1010-101010-5-5-5-5---5---5--|
F|-1111-111111-6-6-6-6---6---6---1111-111111-9-9-9-9----------|
C|------------------------------------------------------------|       x4
G|------------------------------------------------------------|
D|------------------------------------------------------------|


d|----------------------------------------|
A|----------------------------------------|
F|----------------------------------------|
C|----------------------------------------|       x4
G|----------------------------------------|
D|-2-2-2-2-2-2-2-/14-14-14-14-14-14-14-14-|


d|-9-9--9-9-9--4-4-4-4---5---5---9-9--9-9-9--4-4-4-4---0---0--|
A|-1010-101010-5-5-5-5---5---5---1010-101010-5-5-5-5---5---5--|
F|-1111-111111-6-6-6-6---6---6---1111-111111-9-9-9-9----------|
C|------------------------------------------------------------|       x4
G|------------------------------------------------------------|
D|------------------------------------------------------------|

d|----------------------------------------|
A|----------------------------------------|
F|----------------------------------------|
C|----------------------------------------|       x4
G|----------------------------------------|
D|-2-2-2-2-2-2-2-/14-14-14-14-14-14-14-14-|


d|-----------------|
A|-----------------|
F|-----------------|
C|-----------------|       x3
G|-----------------|
D|-0h2222----------|


A|-----------------------------------------------|
F|-----------------------------------------------|
C|-------------------------------------4---5---4-|
G|-------------------------------------4---5---4-|
D|-2--2--2--2-2-2-2-2-2-2-2-2-2-2-2-2--2---3---2-|
            
Submit corrections


        Arguing With Thermometers lessons Hard to play? Try these video lessons and learn fast Arguing With Thermometers lessons
        
↑ Back to top | Tablatures and chords for acoustic guitar and electric guitar, ukulele, drums are parodies/interpretations of the original songs. You may use it for private study, scholarship, research or language learning purposes only