Home » E » Enrique Iglesias »

Enrique Iglesias - Love To See You Cry Tabs

Artists:  A B C D E F G H I J K L M N O P Q R S T U V W X Y Z # 

Love To See You Cry Tabs

(ver. 1) Click to play this song!
Enrique Iglesias
                Artist-Enrique Iglesias
Song-Love To See You Cry

I dont think this song is completely tabbed.
But what i have done so far is right (I think)

Here Go's!

Happy Playing!



Introduction:


e-----------------------------------------|
B-----11---13---13h14---13-----11--13/14--|
G--10------13-----------------------------|
D-----------------------------------------|
A-----------------------------------------|
E-----------------------------------------|

Verse and Chorus:  (Background Guitar)
                 (Played through most of the song)

e--8h9---9--8----|
B--9-----9--9----|
G----------------|
D----------------|
A----------------|
E----------------|

After Chorus ("I dont know Why...Why")

e-----------------------------------------|
B-----11--13---13h14----13---11---13/14---|
G--10-------------------------------------|
D-----------------------------------------|
A-----------------------------------------|
E-----------------------------------------|

e--------------------------------------------|
B-----11--13---13h14----13---11---13---------|
G--10---------------------------------10~~~~~|
D--------------------------------------------|
A--------------------------------------------|
E--------------------------------------------|


  Play The Above Twice then Back to this
for the verse and the chorus:

e--8h9---9--8----|
B--9-----9--9----|
G----------------|
D----------------|
A----------------|
E----------------|

Thats Pretty Much it

I know its not complete so just add bits on to the corrections
If you have any more of the song.
            
Submit corrections

↑ Back to top | Tablatures and chords for acoustic guitar and electric guitar, ukulele, drums are parodies/interpretations of the original songs. You may use it for private study, scholarship, research or language learning purposes only