» » »

Enrique Iglesias - El Perdedor Tabs

Artists:  A B C D E F G H I J K L M N O P Q R S T U V W X Y Z # 

El Perdedor Tabs

(ver. 1) Click to play this song!
Enrique Iglesias
 Rating:
2.8/5 (30 votes)

 El Perdedor lessons Tabs too difficult? Try these video lessons and learn fast
 
                          Am            G (Modificado)
e|----------0-------0--|---------0------|
B|------1-------1------|-----0-------0--|   
G|----2---2---2---2----|---0---0---0----|        
D|---------------------|----------------|       
A|--0------------------|----------------|
E|---------------------|--3-------------|


    Em         Em7          F
e|---------------------|----------------|
B|----------0-------3--|----------1-----|
G|------0-------0------|------2-------2-|
D|----2---2---2---2----|----3---3---3---|
A|---------------------|----------------|
E|--0------------------|--1-------------|



===========================================================================


      Am             G       Em         Em7          F
e|----------0--|---------0--|---------------------|----------------|
B|------1------|-----0------|----------0-------3--|----------1-----|
G|----2---2----|---0---0----|------0-------0------|------2-------2-|
D|-------------|------------|----2---2---2---2----|----3---3---3---|
A|--0----------|------------|---------------------|----------------|
E|-------------|--3---------|--0------------------|--1-------------|




      Am          G (Modificado)      Em    Em7         F
e|----------0--|------------------------|-------------|----------------|
B|------1------|----------0-------1p0---|----------3--|----------1-----|
G|----2---2----|------0-------0-------0-|------0------|------2-------2-|
D|-------------|----0---0---0---0-------|----2---0----|----3---3---3---|
A|--0----------|------------------------|-------------|----------------|
E|-------------|--3---------------------|--0----------|--1-------------|





       C6add9                 G
e|----------3----------|----------3----------|
B|------3-------3---3--|------3-------3---3--|
G|----0---0---0---0----|----0---0---0---0----|
D|---------------------|---------------------|
A|--3------------------|--2------------------|
E|---------------------|---------------------|


        Am7                G (Modificado)         F
e|----------0----------|-------------------------|-----------------|
B|------1-------1---1--|----------0-------1p0----|----------1------|
G|----0---0---0---0----|------0-------0-------0--|------2-------2--|
D|---------------------|----0---0---0---0--------|----3---3---3----|
A|--0------------------|-------------------------|-----------------|
E|---------------------|--3----------------------|--1--------------|



Estrofa 1°: (Arpegio) (Enrique Iglesias)

 Am
Que mas quieres de mi
                                 G
Si el pasado esta a prueba de tu amor
      Em
Y no tengo el valor
                             F
De escapar para siempre del dolor


Estrofa 2°: (Arpegio) (Enrique Iglesias)

 Am
Demasiado pedir
                            G
Que sigamos en esta hipocresia
      Em
Cuanto tiempo mas podre vivir
               F
En la misma mentira


Coro: (Arpegio) (Enrique Iglesias)

 C6add9                   G
No, no vayas presumiendo, no
                    Am7
Que me has robado el corazon
               G
Y no me queda nada mas
 C6add9                 G
Si, prefiero ser el perdedor
                   Am7
Que te lo ha dado todo
               G
Y no me queda nada mas
         F
No me queda mas...


Estrofa 3°: (Rasgueo) (Marco Antonio Solis)

 Am
Ya no puedo seguir
                              G
Resistiendo esa extrana sensacion
        Em
Que me hiela la piel
                          F
Como invierno fuera de estacion


Estrofa 4°: (Rasgueo) (Marco Antonio Solis)

 Am
Tu mirada y la mia
                       G
Ignorandose en una lejania
      Em
Todo pierde sentido
                             F
Y es mejor el vacio que el olvido


Precoro: (Rasgueo) (Enrique Iglesias y Marco Antonio Solis)

            F
Yo prefiero dejarte partir
                G
Que ser tu prisionero
   F
Y no vayas por ahi
                               G
Diciendo ser la duena de mis sentimientos


Coro: (Rasgueo)

 C6add9                  G
No, no vayas presumiendo, no
                   Am7
Que me has robado el corazon
            G
Y no me queda nada mas
 C6add9                  G
Si, prefiero ser el perdedor
  Am7
Que te lo ha dado todo
            G
Y no me queda nada mas

 C6add9                  G
No, no vayas presumiendo, no
                   Am7
Que me has robado el corazon
            G
Y no me queda nada mas
 C6add9                  G
Si, prefiero ser un perdedor
  Am7
Que te lo ha dado todo
            G
Y no me queda nada mas
         F
No me queda nada mas...


Final: (Arpegio) (Lleva el Arpegio de de la 1° estrofa)

 Am
Que mas quieres de mi
                               G
Si el pasado esta a prueba de tu amor            
Submit corrections


        El Perdedor lessons Hard to play? Try these video lessons and learn fast El Perdedor lessons
        
↑ Back to top | Tablatures and chords for acoustic guitar and electric guitar, ukulele, drums are parodies/interpretations of the original songs. You may use it for private study, scholarship, research or language learning purposes only