» » »

Enjambre - Somos Ajenos Bass

Artists:  A B C D E F G H I J K L M N O P Q R S T U V W X Y Z # 

Somos Ajenos Bass

(ver. 1) Click to play this song!
Enjambre
 Rating:
4/5 (4 votes)

 Somos Ajenos lessons Tabs too difficult? Try these video lessons and learn fast
 
                -------## Tablatura bajo de mi versión para Somos Ajenos de Enjambre,
por Fernando Arroyo, checa mi
además, podrás bajar los backing tracks para practicar :)

Afinación Estándar

Intro:

G|-------------------------------------------------------| 
D|-------------------------------------------------------|
A|---6---------6-------------6~~~~~~~~----6~~~~~~~~~~~~~-|
E|-6---------6-------------6------------6----------------|

Verso 1

G|-------------------------------------------------------| 
D|-------------------------------------------------------|
A|---6~~~~~~~--4~~~~~~~~~~~--4~~~~~~~~~-----------6~~~~~~|
E|-6---------4-------------4------------7~~~~~--6--------|

G|-------------------------------------------------------| 
D|------------4~~~~~-------------------------------------|
A|---6~~~~~~~----------4~~~~~~--4~~~~~-------6~~~~~~-----|
E|-6-----------------4--------4-------7~~~~6--------7~~~~|

Coro 

G|-------------------------------------------------------| 
D|-------------------------------------------------------|
A|-4-4-4-4-4-4-4-4-0-/-4-4-4-4-4-4-4---2-2-2-2-2-2-2-2-2-|
E|-------------------------------------------------------|

G|-4-4-4-4-4-3-------------------------------------------| 
D|-------------6-6-6-4-----------------------------------|
A|---------------------7-6-4-4-4-4-4-0-/-4-4-4-4-4-4-4---|
E|-------------------------------------------------------|

G|-------------------------------------------------------| 
D|------------------------------6-8-8-8-8----------------|
A|-2-2-2-2-2-2-2-2-/--6-6-6-6-6-----------6-4-4-4-4-4----|
E|-------------------------------------------------------|

G|-------------------------------------------------------| 
D|-2-2-2-2-2-2-2-2-2-2-2-2-2--4--------------------------|
A|------------------------------2~~~~~~~~~~~~~~~~~~~~~~~~|
E|-------------------------------------------------------|

Verso 2

G|-------------------------------------------------------| 
D|-------------------------------------------------------|
A|---4~~~~~~~~~~~--4~~~~~~~~~-----------6~~~~~~----------|
E|-4-------------4------------7~~~~~--6------------------|

G|-------------------------------------------------------| 
D|----6--4---4-------------------------------------------|
A|---------6------4~~~~~~---4-------------6~~~~~---------|
E|-6------------4---------4----7--6--4--6--------7~~~~~~~|

Coro

G|-------------------------------------------------------| 
D|-------------------------------------------------------|
A|-4-4-4-4-4-4-4-4-0-/-4-4-4-4-4-4-4---2-2-2-2-2-2-2-2-2-|
E|-------------------------------------------------------|

G|-4-4-4-4-4-3-------------------------------------------| 
D|-------------6-6-6-4-----------------------------------|
A|---------------------7-6-4-4-4-4-4-0-/-4-4-4-4-4-4-4---|
E|-------------------------------------------------------|

G|-------------------------------------------------------| 
D|------------------------------6-8-8-8-8----------------|
A|-2-2-2-2-2-2-2-2-/--6-6-6-6-6-----------6-4-4-4-4-4----|
E|-------------------------------------------------------|

G|-------------------------------------------------------| 
D|-2-2-2-2-2-2-2--4--------------------------------------|
A|-------------------2~~~~~~~~~~~~~~~~~~-----------------|
E|-------------------------------------------------------|

Solo

G|----------------------------------------------------| 
D|----------------------------------------------------|
A|----6-----7-----4~~~~~~~--2~~~~~~~~-----------------|
E|--6-----6-----4---------4---------------------------|

G|--------------------------------------------------------| 
D|--------------------------------------------------------|
A|-6-6-6-6-6-6-6-7-7-7-7-7-7-7-4-4-4-4-4-4-2-2-2-2-2-2-2-2|
E|--------------------------------------------------------|

Puente 

G|---------------------------------| 
D|---------------------------------|
A|-2-2-2-2-2-2-2-2-2-2-2-2-2-2-----|
E|---------------------------------|

Coro

G|-------------------------------------------------------| 
D|-------------------------------------------------------|
A|-4-4-4-4-4-4-4-4-0-/-4-4-4-4-4-4-4---2-2-2-2-2-2-2-2-2-|
E|-------------------------------------------------------|

G|-4-4-4-4-4-3-------------------------------------------| 
D|-------------6-6-6-4-----------------------------------|
A|---------------------7-6-4-4-4-4-4-0-/-4-4-4-4-4-4-4---|
E|-------------------------------------------------------|

G|-------------------------------------------------------| 
D|------------------------------6-8-8-8-8----------------|
A|-2-2-2-2-2-2-2-2-/--6-6-6-6-6-----------6-4-4-4-4-4----|
E|-------------------------------------------------------|

G|-------------------------------------------------------| 
D|-2-2-2-2-2-2-2--4--------------------------------------|
A|-------------------2~~~~~~~~~~~~~~~~~~-----------------|
E|-------------------------------------------------------|

Outro

G|--------------------------------------------------------| 
D|--------------------------------------------------------|
A|-6-6-6-6-6-6-6-7-7-7-7-7-7-7-4-4-4-4-4-4-2-2-2-2-2-2-2-2|
E|--------------------------------------------------------|
            
Submit corrections


        Somos Ajenos lessons Hard to play? Try these video lessons and learn fast Somos Ajenos lessons
        
↑ Back to top | Tablatures and chords for acoustic guitar and electric guitar, ukulele, drums are parodies/interpretations of the original songs. You may use it for private study, scholarship, research or language learning purposes only