» » »

Enjambre - Somos Ajenos Tabs

Artists:  A B C D E F G H I J K L M N O P Q R S T U V W X Y Z # 

Somos Ajenos Tabs

(ver. 1) Click to play this song!
Enjambre
 Rating:
4/5 (4 votes)

 Somos Ajenos lessons Tabs too difficult? Try these video lessons and learn fast
 
                -------## Tablatura de mi versión para Somos Ajenos de Enjambre,
por Fernando Arroyo, checa mi
además, podrás bajar los backing tracks para practicar :)

Afinación Estándar

Guitarra 2

Intro

    D#m

|--------6-------6-------6-------6--| el intro se
|----7-------7-------7-------7------| repite 5 veces
|.-8---8---8---8---8---8---8---8---.| y se va alternando
|.---------------------------------.| con el acorde
|-----------------------------------| C#m7add11
|-----------------------------------| durante toda la canción

    C#m7add11

|--------7-------7-------7-------7--|
|----5-------5-------5-------5------|
|.-6---6---6---6---6---6---6---6---.|
|.---------------------------------.|
|-----------------------------------|
|-----------------------------------|

Guitarra 1  verso 1

Palm Mute(PM). . . . . . . . . . . . . . . .
|-------------------------------------------|
|--7-7-7-7-7-7-7-7-7-7-7-7-7--5-5-5-5-5-5-5-|
|--8-8-8-8-8-8-8-8-8-8-8-8-8--6-6-6-6-6-6-6-|
|-------------------------------------------|
|-------------------------------------------|
|-------------------------------------------|

Guitarra 1 continuación verso 1

PM . . . . . . . . . . . . . . . . . . . . .
|--------------------------------------------|
|--5-5-5-5-5-5-5-5-5-5-5-5-5-5-5-5-5-5-5-5-5-|
|--6-6-6-6-6-6-6-6-6-6-6-6-6-6-6-6-6-6-6-6-6-|
|--------------------------------------------|
|--------------------------------------------|
|--------------------------------------------|

Guitarra 1 continuación verso 1

PM . . . . . . . . . . . . . . . . . . . . .
|--------------------------------------------|
|-7-7-7-7-7-7-7-7-7-7-7-7-7-7-7-7-7-7-7-7-7--|
|-8-8-8-8-8-8-8-8-8-8-8-8-8-8-8-8-8-8-8-8-8--|
|--------------------------------------------|
|--------------------------------------------|
|--------------------------------------------|
Guitarra 1 continuación verso 1

PM . . . . . . . . . . . . . . . . . . . . . .
|-----------------------------------------------|
|---------------------------------9--9--9--9--9-|
|-8-8-8-8-10-10-10-10-11-11-11-11-8--8--8--8--8-|
|-8-8-8-8-8--8--8--8--8--8--8--8----------------|
|-----------------------------------------------|
|-----------------------------------------------| fergto78

Guitarra 1 continuación verso 1

PM . . . . . . . . . . . . . . . . . . . . .
|-------------------------------------------|
|-5-5-5-5-5-5-5-5-5-5-5-5-5-5-5-5-5-5-5-5-5-|
|-6-6-6-6-6-6-6-6-6-6-6-6-6-6-6-6-6-6-6-6-6-|
|-------------------------------------------|
|-------------------------------------------|
|-------------------------------------------|

Guitarra 1 continuación verso 1

PM . . . . . . . . . . . . . . . .
|-----------------------------------|
|-------------------------7-7-7-7---|
|-6-6-6-6-8-8-8-8-9-9-9-9-6-6-6-6---|
|-6-6-6-6-6-6-6-6-6-6-6-6-----------|
|-----------------------------------|
|-----------------------------------|

Guitarra 1 continuación verso 1

PM . . . . . . . . . . . . . . . . . . . . .
|--------------------------------------------|
|-7-7-7-7-7-7-7-7-7-7-7-7-7-7-7-7-7-7-7-7-7--|
|-8-8-8-8-8-8-8-8-8-8-8-8-8-8-8-8-8-8-8-8-8--|
|--------------------------------------------|
|--------------------------------------------|
|--------------------------------------------|

Guitarra 1 Puente al coro

   B
|--(con aumento gradual de volumen)-|
|-----------------------------------|
|--8--8--8--8--8--8--8--8--8--8-----|
|--9--9--9--9--9--9--9--9--9--9-----|
|--9--9--9--9--9--9--9--9--9--9-----|
|--7--7--7--7--7--7--7--7--7--7-----|

Guitarra 1 Coro

  E5               D#5      C#5
|--------------------------------------|
|--------------------------------------|
|-9--9-9-9-9-9-9-/-8-8-8-8-/-6-6-6-6-/-|
|-9--9-9-9-9-9-9-/-8-8-8-8-/-6-6-6-6-/-|
|--------------------------------------|
|--------------------------------------|

Guitarra 1 continuación Coro

  E5               D#5      C#5
|--------------------------------------|
|--------------------------------------|
|-9--9-9-9-9-9-9-/-8-8-8-8-/-6-6-6-6-/-|
|-9--9-9-9-9-9-9-/-8-8-8-8-/-6-6-6-6-/-|
|--------------------------------------|
|--------------------------------------|

Guitarra 1 continuación Coro

  D#5              C#5       B5
|--------------------------------------|
|--------------------------------------|
|-8--8-8-8-8-8-8-/-6-6-6-6-/-4-4-4-4-/-|
|-8--8-8-8-8-8-8-/-6-6-6-6-/-4-4-4-4-/-|
|--------------------------------------|
|--------------------------------------|

Guitarra 1 continuación Coro

  D#5              C#5       B5
|--------------------------------------|
|--------------------------------------|
|-8--8-8-8-8-8-8-/-6-6-6-6-/-4-4-4-4-/-|
|-8--8-8-8-8-8-8-/-6-6-6-6-/-4-4-4-4-/-|
|--------------------------------------|
|--------------------------------------|

Guitarra 1 continuación Coro

  E5               D#5      C#5
|--------------------------------------|
|--------------------------------------|
|-9--9-9-9-9-9-9-/-8-8-8-8-/-6-6-6-6-/-|
|-9--9-9-9-9-9-9-/-8-8-8-8-/-6-6-6-6-/-|
|--------------------------------------|
|--------------------------------------|

Guitarra 1 continuación Coro

  E5               D#5      C#5
|--------------------------------------|
|--------------------------------------|
|-9--9-9-9-9-9-9-/-8-8-8-8-/-6-6-6-6-/-|
|-9--9-9-9-9-9-9-/-8-8-8-8-/-6-6-6-6-/-|
|--------------------------------------|
|--------------------------------------|

Guitarra 1 continuación Coro

  D#5              C#5       B5
|--------------------------------------|
|--------------------------------------|
|-8--8-8-8-8-8-8-/-6-6-6-6-/-4-4-4-4-/-|
|-8--8-8-8-8-8-8-/-6-6-6-6-/-4-4-4-4-/-|
|--------------------------------------|
|--------------------------------------|

Guitarra 1 continuación Coro

  D#5              C#5       B5
|--------------------------------------|
|--------------------------------------|
|-8--8-8-8-8-8-8-/-6-6-6-6-/-4-4-4-4-/-|
|-8--8-8-8-8-8-8-/-6-6-6-6-/-4-4-4-4-/-|
|--------------------------------------|
|--------------------------------------|

Guitarra 1 continuación Coro

  E5               D#5      C#5
|--------------------------------------|
|--------------------------------------|
|-9--9-9-9-9-9-9-/-8-8-8-8-/-6-6-6-6-/-|
|-9--9-9-9-9-9-9-/-8-8-8-8-/-6-6-6-6-/-|
|--------------------------------------|
|--------------------------------------|

Guitarra 1 continuación y fin del Coro

  E5                E        B
|------------------/12~~~---------------|
|------------------/12~~~---------------|
|-9--9-9-9-9-9-9---/13~~~---------------|
|-9--9-9-9-9-9-9---/14~~~---------------|
|----------------------------14~~~~~~~--|
|---------------------------------------|

Guitarra 1  verso 2

PM . . . . . . . . . . . . . . . . . . . . . . .
|--------(se repite 2 veces)------|-------------|
|---------------------------------|-------------|
|.-6-6-6-4-4-4-----6-6-6-4-4-----.|-8-8-8-6-6-6-|
|.-------------6-6-----------6-6-.|-------------|
|---------------------------------|-------------|
|---------------------------------|-------------|

Guitarra 1  continuación verso 2

PM . . . . . . . . . . . .
|-----------------------------|
|-----------------------------|
|----------------------6-6----|
|-8-8-8-8-8-8-8-8-9-9---------|
|-----------------------------|
|-----------------------------|

Guitarra 1 continuación verso 2

PM . . . . . . . . . . . . . . . . . . . . . . .
|-----------------------------------------------|
|---------------------------------9--9--9--9--9-|
|-8-8-8-8-10-10-10-10-11-11-11-11-8--8--8--8--8-|
|-8-8-8-8-8--8--8--8--8--8--8--8----------------|
|-----------------------------------------------|
|-----------------------------------------------|

Guitarra 1 continuación verso 2

PM . . . . . . . . . . . . . . . . . . . . .
|--------------------------------------------|
|--5-5-5-5-5-5-5-5-5-5-5-5-5-5-5-5-5-5-5-5-5-|
|--6-6-6-6-6-6-6-6-6-6-6-6-6-6-6-6-6-6-6-6-6-|
|--------------------------------------------|
|--------------------------------------------|
|--------------------------------------------|

Guitarra 1 continuación verso 2

PM . . . . . . . . . . . . . . . .
|-----------------------------------|
|-------------------------7-7-7-7---|
|-6-6-6-6-8-8-8-8-9-9-9-9-6-6-6-6---|
|-6-6-6-6-6-6-6-6-6-6-6-6-----------|
|-----------------------------------|
|-----------------------------------|

Guitarra 1 continuación verso 1

PM . . . . . . . . . . . . . . . . . . . . .
|--------------------------------------------|
|-7-7-7-7-7-7-7-7-7-7-7-7-7-7-7-7-7-7-7-7-7--|
|-8-8-8-8-8-8-8-8-8-8-8-8-8-8-8-8-8-8-8-8-8--|
|--------------------------------------------|
|--------------------------------------------|
|--------------------------------------------|

Guitarra 1 Puente al coro

   B
|--(con aumento gradual de volumen)-|
|-----------------------------------|
|--8--8--8--8--8--8--8--8--8--8-----|
|--9--9--9--9--9--9--9--9--9--9-----|
|--9--9--9--9--9--9--9--9--9--9-----|
|--7--7--7--7--7--7--7--7--7--7-----|

Guitarra 1 Coro

  E5               D#5      C#5
|--------------------------------------|
|--------------------------------------|
|-9--9-9-9-9-9-9-/-8-8-8-8-/-6-6-6-6-/-|
|-9--9-9-9-9-9-9-/-8-8-8-8-/-6-6-6-6-/-|
|--------------------------------------|
|--------------------------------------|

Guitarra 1 continuación Coro

  E5               D#5      C#5
|--------------------------------------|
|--------------------------------------|
|-9--9-9-9-9-9-9-/-8-8-8-8-/-6-6-6-6-/-|
|-9--9-9-9-9-9-9-/-8-8-8-8-/-6-6-6-6-/-|
|--------------------------------------|
|--------------------------------------|

Guitarra 1 continuación Coro

  D#5              C#5       B5
|--------------------------------------|
|--------------------------------------|
|-8--8-8-8-8-8-8-/-6-6-6-6-/-4-4-4-4-/-|
|-8--8-8-8-8-8-8-/-6-6-6-6-/-4-4-4-4-/-|
|--------------------------------------|
|--------------------------------------|

Guitarra 1 continuación Coro

  D#5              C#5       B5
|--------------------------------------|
|--------------------------------------|
|-8--8-8-8-8-8-8-/-6-6-6-6-/-4-4-4-4-/-|
|-8--8-8-8-8-8-8-/-6-6-6-6-/-4-4-4-4-/-|
|--------------------------------------|
|--------------------------------------|

Guitarra 1 continuación Coro

  E5               D#5      C#5
|--------------------------------------|
|--------------------------------------|
|-9--9-9-9-9-9-9-/-8-8-8-8-/-6-6-6-6-/-|
|-9--9-9-9-9-9-9-/-8-8-8-8-/-6-6-6-6-/-|
|--------------------------------------|
|--------------------------------------|

Guitarra 1 continuación Coro

  E5               D#5      C#5
|--------------------------------------|
|--------------------------------------|
|-9--9-9-9-9-9-9-/-8-8-8-8-/-6-6-6-6-/-|
|-9--9-9-9-9-9-9-/-8-8-8-8-/-6-6-6-6-/-|
|--------------------------------------|
|--------------------------------------|

Guitarra 1 continuación Coro

  D#5              C#5       B5
|--------------------------------------|
|--------------------------------------|
|-8--8-8-8-8-8-8-/-6-6-6-6-/-4-4-4-4-/-|
|-8--8-8-8-8-8-8-/-6-6-6-6-/-4-4-4-4-/-|
|--------------------------------------|
|--------------------------------------|

Guitarra 1 continuación Coro

  D#5              C#5       B5
|--------------------------------------|
|--------------------------------------|
|-8--8-8-8-8-8-8-/-6-6-6-6-/-4-4-4-4-/-|
|-8--8-8-8-8-8-8-/-6-6-6-6-/-4-4-4-4-/-|
|--------------------------------------|
|--------------------------------------|

Guitarra 1 continuación Coro

  E5               D#5      C#5
|--------------------------------------|
|--------------------------------------|
|-9--9-9-9-9-9-9-/-8-8-8-8-/-6-6-6-6-/-|
|-9--9-9-9-9-9-9-/-8-8-8-8-/-6-6-6-6-/-|
|--------------------------------------|
|--------------------------------------|

Guitarra 1 continuación y fin del Coro

  E5                E        B
|----------------/--12~~~---------------|
|----------------/--12~~~---------------|
|-9--9-9-9-9-9-9-/--13~~~---------------|
|-9--9-9-9-9-9-9-/--14~~~---------------|
|----------------------------14~~~~~~~--|
|---------------------------------------|

Solo

|---------------------------------11-----|
|-14fb(16)r-12~~------------12h14----12--|
|---------------13~~--11h13--------------|
|----------------------------------------|
|----------------------------------------|
|----------------------------------------|

|-14fb(16)r-12-11h12---------14fb(16)r-12-11h12---|
|--------------------14~~~~~----------------------|
|-------------------------------------------------|
|-------------------------------------------------|
|-------------------------------------------------|
|-------------------------------------------------|

|-------------------------------------------------|
|-12~~~~~-----------------------------------------|
|---------13--11----------------------------------|
|-----------------13/--/11------------------------|
|--------------------------14-13-11-9-7-6br~br~~--|
|-------------------------------------------------|

|-------------------------------------------------|
|-------------------------------------------------|
|-------------------------------------------------|
|-------------------------------------------------|
|------6------/9--7~~~~~------6------/9--7~~~~~---|
|-7--9---7--9------------7--9---7--9--------------|

                              *armónico natural
|----------------------------(7)~~~~~~~~~~~~~~~~~~|
|-------------------------------------------------|
|-------------------------------------------------|
|-/13-11------------------------------------------|
|--------14-13-11---------------------------------|
|-----------------7~~~~~~~~~~---------------------|

Guitarra 1 Puente al coro

   B
|--(con aumento gradual de volumen)-|
|-----------------------------------|
|--8--8--8--8--8--8--8--8--8--8-----|
|--9--9--9--9--9--9--9--9--9--9-----|
|--9--9--9--9--9--9--9--9--9--9-----|
|--7--7--7--7--7--7--7--7--7--7-----|

Guitarra 1 Coro

  E5               D#5      C#5
|--------------------------------------|
|--------------------------------------|
|-9--9-9-9-9-9-9-/-8-8-8-8-/-6-6-6-6-/-|
|-9--9-9-9-9-9-9-/-8-8-8-8-/-6-6-6-6-/-|
|--------------------------------------|
|--------------------------------------|

Guitarra 1 continuación Coro

  E5               D#5      C#5
|--------------------------------------|
|--------------------------------------|
|-9--9-9-9-9-9-9-/-8-8-8-8-/-6-6-6-6-/-|
|-9--9-9-9-9-9-9-/-8-8-8-8-/-6-6-6-6-/-|
|--------------------------------------|
|--------------------------------------|

Guitarra 1 continuación Coro

  D#5              C#5       B5
|--------------------------------------|
|--------------------------------------|
|-8--8-8-8-8-8-8-/-6-6-6-6-/-4-4-4-4-/-|
|-8--8-8-8-8-8-8-/-6-6-6-6-/-4-4-4-4-/-|
|--------------------------------------|
|--------------------------------------|

Guitarra 1 continuación Coro

  D#5              C#5       B5
|--------------------------------------|
|--------------------------------------|
|-8--8-8-8-8-8-8-/-6-6-6-6-/-4-4-4-4-/-|
|-8--8-8-8-8-8-8-/-6-6-6-6-/-4-4-4-4-/-|
|--------------------------------------|
|--------------------------------------|

Guitarra 1 continuación Coro

  E5               D#5      C#5
|--------------------------------------|
|--------------------------------------|
|-9--9-9-9-9-9-9-/-8-8-8-8-/-6-6-6-6-/-|
|-9--9-9-9-9-9-9-/-8-8-8-8-/-6-6-6-6-/-|
|--------------------------------------|
|--------------------------------------|

Guitarra 1 continuación Coro

  E5               D#5      C#5
|--------------------------------------|
|--------------------------------------|
|-9--9-9-9-9-9-9-/-8-8-8-8-/-6-6-6-6-/-|
|-9--9-9-9-9-9-9-/-8-8-8-8-/-6-6-6-6-/-|
|--------------------------------------|
|--------------------------------------|

Guitarra 1 continuación Coro

  D#5              C#5       B5
|--------------------------------------|
|--------------------------------------|
|-8--8-8-8-8-8-8-/-6-6-6-6-/-4-4-4-4-/-|
|-8--8-8-8-8-8-8-/-6-6-6-6-/-4-4-4-4-/-|
|--------------------------------------|
|--------------------------------------|

Guitarra 1 continuación Coro

  D#5              C#5       B5
|--------------------------------------|
|--------------------------------------|
|-8--8-8-8-8-8-8-/-6-6-6-6-/-4-4-4-4-/-|
|-8--8-8-8-8-8-8-/-6-6-6-6-/-4-4-4-4-/-|
|--------------------------------------|
|--------------------------------------|

Guitarra 1 continuación Coro

  E5               D#5      C#5
|--------------------------------------|
|--------------------------------------|
|-9--9-9-9-9-9-9-/-8-8-8-8-/-6-6-6-6-/-|
|-9--9-9-9-9-9-9-/-8-8-8-8-/-6-6-6-6-/-|
|--------------------------------------|
|--------------------------------------|

Guitarra 1 continuación y fin del Coro

  E5                E        B
|----------------/--12~~~---------------|
|----------------/--12~~~---------------|
|-9--9-9-9-9-9-9-/--13~~~---------------|
|-9--9-9-9-9-9-9-/--14~~~---------------|
|----------------------------14~~~~~~~--|
|---------------------------------------|

Solo Final

|---------------------------------11-----|
|-14fb(16)r-12~~------------12h14----12--|
|---------------13~~--11h13--------------|
|----------------------------------------|
|----------------------------------------|
|----------------------------------------|fergto78

|-14fb(16)r-12-11h12---------14fb(16)r-12-11h12---|
|--------------------14~~~~~----------------------|
|-------------------------------------------------|
|-------------------------------------------------|
|-------------------------------------------------|
|-------------------------------------------------|

|--------------------------------------------|
|-12~~~~~------------------------------------|
|---------13--11-----------------------------|
|-----------------13/--/11-------------------|
|--------------------------14-13-11-9-7-6/---|
|--------------------------------------------|
            
Submit corrections


        Somos Ajenos lessons Hard to play? Try these video lessons and learn fast Somos Ajenos lessons
        
↑ Back to top | Tablatures and chords for acoustic guitar and electric guitar, ukulele, drums are parodies/interpretations of the original songs. You may use it for private study, scholarship, research or language learning purposes only