» » »

Enemies - Robert Reid Tabs

Artists:  A B C D E F G H I J K L M N O P Q R S T U V W X Y Z # 

Robert Reid Tabs

(ver. 1) Click to play this song!
Enemies
 Rating:
4.3/5 (19 votes)


 Robert Reid  lessons Tabs too difficult? Try these video lessons and learn fast
 
                [Intro]
e|---------------9--12---------------------|
B|-10-----9--12----------------------------|
G|----11--------------------------------6--|
D|-----------------------------6--7--9-----|
A|-----------------------------------------|
E|-----------------------------------------|

[A Section]
e|-------------------------------------|
B|------7------------------------------|
G|------6------7-------6-----------6---|
D|-------------7-------7-----6-7-9-----| x9
A|-0-0----0-0------0-0----0------------|
E|-------------------------------------|

e|------------------------------|
B|--10-----10----10-----10---10-|
G|-----11-----9-----------------|
D|------------------12-----11---| x4
A|------------------------------|
E|------------------------------|

e|------------------------------------|
B|------7-----------------------------|
G|------6------7-------6-----------6--|
D|-------------7-------7-----6-7-9----| x6
A|-0-0----0-0------0-0----0-----------|
E|------------------------------------|

e|------------------------------|
B|--10-----10----10-----10---10-|
G|-----11-----9-----------------|
D|------------------12-----11---| x4
A|------------------------------|
E|------------------------------|


e|---------------9--12---------|
B|-10-----9--12----------------|
G|----11-----------------------|
D|-----------------------------|
A|-----------------------------|
E|-----------------------------|

[B Section]                                                                
e|--------------------------------12----------------------------------------|
B|--14-----14-------14------14----------14----14----14----14-----14---------| *(on the 4th round)*
G|-----14------13-------11-----------------14----13----11-------------------|  
D|-----------------------------14----------------------------14--(14-14-14)-|x6
A|--------------------------------------------------------------------------|
E|--------------------------------------------------------------------------|
 
e|--------------------------------|
B|--14-----14-------14------14----|
G|-----14------13-------11--------|
D|-----------------------------14-| x4
A|--------------------------------|
E|--------------------------------|
                                                                
e|--------------------------------------|
B|--14-14----14--14----14-14----14--14--|
G|--------------------------------------|
D|--------------------------------------| x5
A|--------------------------------------|
E|--------------------------------------|

This next part I have figured out for 2 guitars

Guitar 1
e|------------------------------------|
B|------------------------------------|
G|--14-14----13-13----11-11----9--9---|
D|--16-16----14-14----12-12----11-11--| x14
A|------------------------------------|
E|------------------------------------|

Guitar 2
e|----------------------------------------------------------------|
B|--14-14---12-12---10-10---9-9----14-14---14-14---14-14---14-14--|
G|----------------------------------------------------------------|
D|----------------------------------------------------------------|
A|----------------------------------------------------------------|
E|----------------------------------------------------------------|


e|----------------------------------------------------------------|
B|--14-14---12-12---10-10---9-9----14-14---14-14---14-14---14-14--|
G|----------------------------------------------------------------|
D|----------------------------------------------------------------|
A|----------------------------------------------------------------|
E|----------------------------------------------------------------|


e|----------------------------------------------------------------|
B|--14-14---14-14---14-14---14-14----14-14---12-12---10-10---9-9--|
G|----------------------------------------------------------------|
D|----------------------------------------------------------------| 
A|----------------------------------------------------------------|
E|----------------------------------------------------------------|

e|----------------------------------------------------------------|
B|--14-14---14-14---14-14---14-14----14-14---12-12---10-10---9-9--|
G|----------------------------------------------------------------|
e|----------------------------------------------------------------| 
A|----------------------------------------------------------------|
E|----------------------------------------------------------------|


e|----------------------------------------------------------------|
B|--14-14---14-14---14-14---14-14-=--14-14---12-12---10-10---9-9--|
G|----------------------------------------------------------------|
D|----------------------------------------------------------------| 
A|----------------------------------------------------------------|
E|----------------------------------------------------------------|

e|--15-15---15-15---15-15---15-15----15-15---15-15---15-15---15-15-|
B|-----------------------------------------------------------------|
G|-----------------------------------------------------------------|
D|-----------------------------------------------------------------| x2
A|-----------------------------------------------------------------|
E|-----------------------------------------------------------------|

[Section C]
Guitar 1
e|---------------------------------------------------------------------------|
B|---------------------------------------------------------------------------|
G|---------------------------------------------------------------------------|
D|----7----7-----7-----6-----6------6------4----4-----4-----4-----4-----4----| x16
A|--9----9----9-----7-----7------7------5-----5----5-----5-----5-----5-------|
E|---------------------------------------------------------------------------|

Guitar 2
e|---17--------------------|            \
B|---------15----14----15--|             \
G|-------------------------|              \
D|-------------------------|               \
A|-------------------------|                \
E|-------------------------|                 \
                                               This section is looped until the end of the song
e|---21--------------------| Harmony line    /  Alternatively Guitar 2 can start playing it again
B|---------------19--------|starts on the   /    during the outro (Enemies loop it so Eoin can start
G|-------------------------| 9nth round    /     drumming)
D|-------------------------|              /
A|-------------------------|             /
E|-------------------------|            /


e|-------------------------|
B|--12-10--12-10--12-10-12-|
G|-------------------------|
D|-------------------------| x2
A|-------------------------|
E|-------------------------|

[Section D]
(Back to only one Guitar - Guitar 2)
e|---------------------------------------------------------------------------|
B|--10-10-10--9-9-9---------9-10---14-14-14----------------------------------|
G|-------------------9--11-------------------13-13-13--14--------------------|
D|---------------------------------------------------------14--12--11--------|  \
A|---------------------------------------------------------------------------|   \
E|---------------------------------------------------------------------------|    \
                                                                                    x2
e|---------------------------------------------------------------------------|    /
B|--10-10-10--9-9-9---------9-10---14-14-14-14-14-14-15-15-15-15-15-15--(14)-|   /
G|-------------------9--11---------------------------------------------------|  /
D|---------------------------------------------------------------------------|
A|---------------------------------------------------------------------------|
E|---------------------------------------------------------------------------|

[Outro]
(Guitar 1)
e|-----------------------------------------------------------------|
B|-----------------------------------------------------------------|
G|-9-----4----2-----7----9------4----------------------------------|
D|-11----6----4-----9----11-----6----------------------------------| x3
A|-12----7----4-----9----12-----7----------------------------------|
E|-----------------------------------------------------------------|

e|-12----7----5-----10----12-----7---------------------------------|
B|-14----9----7-----12----14-----9---------------------------------|
G|-14----9----6-----11----14-----9---------------------------------|
D|-----------------------------------------------------------------|
A|-----------------------------------------------------------------|
E|-----------------------------------------------------------------|
            
Submit corrections



        Robert Reid  lessons Hard to play? Try these video lessons and learn fast Robert Reid  lessons
        
↑ Back to top | Tablatures and chords for acoustic guitar and electric guitar, ukulele, drums are parodies/interpretations of the original songs. You may use it for private study, scholarship, research or language learning purposes only