Home » E » Enanitos Verdes »

Enanitos Verdes - No Me Verás Tabs

Artists:  A B C D E F G H I J K L M N O P Q R S T U V W X Y Z # 

No Me Verás Tabs

(ver. 1) Click to play this song!
Enanitos Verdes
[Chorus 1]

  A      
No me veras, no me veras
      f#m     bm
abrazando recuerdos
    D                 A
la vida es demasiado corta
       B             E
para vivirla en el pasado

Lick #1

 e|-----4--3--2--0---|
 B|------------------|
 G|--/4----3--2--1---|
 D|------------------|
 A|------------------|
 E|------------------|

[Chorus 2]
         A
No me veras, no me veras
          f#m   bm
si algun dia caigo
     D                 A
no quiero q te pongas triste
            B            E
si yo estoy mal de verme mal

Lick #1

 e|-----4--3--2--0---|
 B|------------------|
 G|--/4----3--2--1---|
 D|------------------|
 A|------------------|
 E|------------------|

[Chorus 3]

         A   
no me veras no me veras
        f#m      bm
pidiendote revancha
 D                A
todo lo q pueda pasarnos 
           B             E
si somos sinceros estara bien

Lick #1

 e|-----4--3--2--0---|
 B|------------------|
 G|--/4----3--2--1---|
 D|------------------|
 A|------------------|
 E|------------------|

[Verse 1]

        D
te conoci sin saber 
        D#dim
q yo te iba  querer 
           A      
de esta manera

            D
y ahora estoy muy feliz 
        D#dim                A      f#m
pq te tengo a ti por vez primera
        bm       E7#9
voy a amarte


Bass arr. for Guitar

E|-----------------|-------------------|
B|-----------------|-------------------|
G|-----------------|-------------------|
D|-----------------|-------------------|
A|-----------0-----|-----------2/4-0-2-|
E|-0-2-0-2-0---2-2-|-0-2-0-2-0---------|


[SOLOS]

Acoustic Guitar Solo

E|-------9-12-10-9----10p9-------|--9--------------------------------------------------|
B|-----10----------12------12p10-|----10p9----10-9----9--------------------------------|
G|---11--------------------------|---------11------11---11-9----9----------------------|
D|-12----------------------------|---------------------------11---11-10-9\7-9-7--------|
A|-------------------------------|----------------------------------------------9-7-9~-|
E|-------------------------------|-----------------------------------------------------|

Electric Guitar Solo  (A Major/f# minor)
                                         T        T         T
E|-----------------------------------|-------------------------------------|
B|-------2~~---------4b5~---4b5--4~--|-12b14--20--r12--17--12b14--20--r12--|
G|-------2~~---------4b5~---4b5--4~--|-------------------------------------|
D|-x///--------4~--------------------|-------------------------------------|
A|-x///------------------------------|-------------------------------------|
E|-----------------------------------|-------------------------------------|

  T           T               T      T             T
E|--------------------------|---------------------|-------------|
B|-17--12b14--20--r12p10h12-|o-17-14-17-14p12p10-o|-17-14p12p10-|
G|--------------------------|---------------------|-------------|
D|--------------------------|---------------------|-------------|
A|--------------------------|o-------------------o|-------------|
E|--------------------------|----------------x3---|-------------|

   T     T          T     T          T
E|-16-14-16-14p12p9-16-14 16-14p12p9-16-12h14\---|--16~-14----14~-----------|
B|-----------------------------------------------|---------17-----17-14-17~-|
G|-----------------------------------------------|--------------------------|
D|-----------------------------------------------|--------------------------|
A|-----------------------------------------------|--------------------------|
E|-----------------------------------------------|--------------------------|

E|------------------------------------------|--17b19~-17-16--------------------------|
B|-14----14~--------------------------------|---------------17-17--------------------|
G|----16-----16-14-16~-14----14-------------|---------------------16-14-13-14-13-----|
D|------------------------16-----16-14-16~--|------------------------------------14~-|
A|------------------------------------------|----------------------------------------|
E|------------------------------------------|----------------------------------------|

E|--------14-17p14-----|-16p14----14-------16p14----14--------------------------|
B|o-14h17----------17--|-------17----17p14-------17----17p14--17p14----14-------|
G|--------------------o|--------------------------------------------16----16p14-|
D|---------------------|--------------------------------------------------------|
A|o-------------------o|--------------------------------------------------------|
E|---------------x8----|--------------------------------------------------------|

E|-------------------------------------|------------------------------------------|
B|-------------------------------------|------------------------------------------|
G|-16p14----14-------16p14----14-------|------------------------------------------|
D|-------16----16p14-------16----16p14-|-16p14----14------------------------------|
A|-------------------------------------|-------16----16-15-14\12----12------------|
E|-------------------------------------|-------------------------14----14-12-14~--|

   T    T             T             T            T               T   
E|-----------------|--------------|-----------|--------------|-----------------|
B|-12-7-12-9p7p5h9-|o-12-9p7p5h9-o|-12-9p7p5--|o-14-12p10p7-o|o--17-14p12p10--o|
G|-----------------|--------------|-----------|--------------|-----------------|
D|-----------------|--------------|-----------|--------------|-----------------|
A|-----------------|o------------o|-----------|o------------o|o---------------o|
E|-----------------|------(x-4)---|-----------|-------(x-5)--|----------(x-3)--|

   T           T           T            T           T           T           T
E|------------------------------------|-------------------------------------------------|
B|-18-14p12p10-19-14p12p10-20-14p12p10|-21-14p12p10-22-14p12p10-23-14p12p10-24-14p12p10-|
G|------------------------------------|-------------------------------------------------|
D|------------------------------------|-------------------------------------------------|
A|------------------------------------|-------------------------------------------------|
E|------------------------------------|-------------------------------------------------|

[Verse 2]  

      D
te conoci sin saber 
        D#dim
q yo te iba  querer 
           A      
de esta manera

            D
y ahora estoy muy feliz 
        D#dim                A      F#
pq te tengo a ti por vez primera
        bm      E7#9
voy a amarte

[Chorus 4]

         A   
no me veras, no me veras
     f#m         bm
ocultando sentimientos
    D                          A
no voy a ser mas fuerte o mas debil
              B            E
solo por mostrarme sentimental

Lick #1

 e|-----4--3--2--0---|
 B|------------------|
 G|--/4----3--2--1---|
 D|------------------|
 A|------------------|
 E|------------------|

[Chorus 5]

          A
no me veras, no me veras
       f#m     bm
levantando banderas
       D                A
si al fin este mundo es uno
             B                E
yo quiero un mundo no quiero tres

Lick #1

 e|-----4--3--2--0---|
 B|------------------|
 G|--/4----3--2--1---|
 D|------------------|
 A|------------------|
 E|------------------|

"Verse 3"

        D
te conoci sin saber 
        D#dim
q yo te iba  querer 
           A      
de esta manera

            D
y ahora estoy muy feliz 
        D#dim                A      F#
pq te tengo a ti por vez primera
        bm              E7#9
            voy a amarte

[Outro]

A        f#m      D
A        f#m      D

(trumpets)

E|-----------------|--------------------------5-(7/9-5~)----|
B|-7-10--10p7-10~--|-------4/5-------8--8-7p5---------------|
G|-----------------|-6-7-6-----------.-----------5/6--------|
D|-----------------|-----------7-7~------------------7~~----|
A|-----------------|----------------------------------------|
E|-----------------|----------------------------------------|            
Submit corrections

↑ Back to top | Tablatures and chords for acoustic guitar and electric guitar, ukulele, drums are parodies/interpretations of the original songs. You may use it for private study, scholarship, research or language learning purposes only