Home » E » Enanitos Verdes »

Enanitos Verdes - Del Cairo A Paris Vivo Bass

Artists:  A B C D E F G H I J K L M N O P Q R S T U V W X Y Z # 

Del Cairo A Paris Vivo Bass

(ver. 1) Click to play this song!
Enanitos Verdes
Cuando entra requinto (min. 0:41)

Inicio:

G------------------------------------------------10----------------------|
D------3--------3-----------5--------5--------12--------------5------3---|
A-5--5-----5--5-----------7--------7---13--13---------------7---5--5-----|
E--------5--------5--8--8-----8--8------------------5--8--8------------5-|

G------------|
D------3-----|
A-5--5-----5-| (x2)
E--------5---|


(Del cairo a parís): (Min. 1:11)

G-------------------------------------------------------------------|
D------3--------3---------2--------2--------0--------2--------3-----|
A-5--5-----5--5------3--3-----3--3-----1--1-----3--3-----5--5-----5-|
E--------5--------5---------3--------3--------1--------3--------5---|

G------------|
D------3-----|
A-5--5-----5-|
E--------5---|

(Un siglo pasó) (Min. 1:26)

G-------------------------------------------------------------------|
D------3--------3---------2--------2--------0--------2--------3-----|
A-5--5-----5--5------3--3-----3--3-----1--1-----3--3-----5--5-----5-|
E--------5--------5---------3--------3--------1--------3--------5---|

G------------|
D------3-----|
A-5--5-----5-|
E--------5---|

(Busco más...) (Min. 1:41)

G-------------------------------------------------------------------|
D------2--------2---------3--------3--------0--------2--------3-----|
A-3--3-----3--3------5--5-----5--5-----1--1-----3--3-----5--5-----5-|
E--------3--------3---------5--------5--------1--------3--------5---|

G------------|
D------3-----|
A-5--5-----5-|
E--------5---|

(Frente al Dios...) (Min. 1:56)

G-------------------------------------------------------------------|
D------2--------2---------3--------3--------0--------2--------3-----|
A-3--3-----3--3------5--5-----5--5-----1--1-----3--3-----5--5-----5-|
E--------3--------3---------5--------5--------1--------3--------5---|

G-----------------------------------|
D------3--------3--------3----------|
A-5--5-----5--5*-----5--5-----5-1s5-|
E--------5--------5--------5--------|
              (* aki toca más rápido)

Vuelve, con la música egipcia y tocas el intro: (Min. 2:11)

G------------------------------------------------10----------------------|
D------3--------3-----------5--------5--------12--------------5------3---|
A-5--5-----5--5-----------7--------7---13--13---------------7---5--5-----|
E--------5--------5--8--8-----8--8------------------5--8--8------------5-|

G------------|
D------3-----|
A-5--5-----5-|
E--------5---|

(Del cairo a parís): (Min. 2:25)

G-------------------------------------------------------------------|
D------3--------3---------2--------2--------0--------2--------3-----|
A-5--5-----5--5------3--3-----3--3-----1--1-----3--3-----5--5-----5-|
E--------5--------5---------3--------3--------1--------3--------5---|

G------------|
D------3-----|
A-5--5-----5-|
E--------5---|

(Un siglo pasó) (Min. 2:40)

G-------------------------------------------------------------------|
D------3--------3---------2--------2--------0--------2--------3-----|
A-5--5-----5--5------3--3-----3--3-----1--1-----3--3-----5--5-----5-|
E--------5--------5---------3--------3--------1--------3--------5---|

G------------|
D------3-----|
A-5--5-----5-|
E--------5---|

(El desierto...) (Min. 2:55)

G-------------------------------------------------------------------|
D------2--------2---------3--------3--------0--------2--------3-----|
A-3--3-----3--3------5--5-----5--5-----1--1-----3--3-----5--5-----5-|
E--------3--------3---------5--------5--------1--------3--------5---|

G------------|
D------3-----|
A-5--5-----5-|
E--------5---|

(Por las noches) (Min. 3:10)

G-------------------------------------------------------------------|
D------2--------2---------3--------3--------0--------2--------3-----|
A-3--3-----3--3------5--5-----5--5-----1--1-----3--3-----5--5-----5-|
E--------3--------3---------5--------5--------1--------3--------5---|

G------------|
D------3-----|
A-5--5-----5-|
E--------5---|

(Del cairo a parís): (Min. 3:24)

Entras así:

G-----------------------------------|
D------3--------3--------3----------|
A-5--5-----5--5*-----5--5-----5-1---|s5... y vuelve
E--------5--------5--------5--------|
              (* aki toca más rápido)

G-------------------------------------------------------------------|
D------3--------3---------2--------2--------0--------2--------3-----|
A-5--5-----5--5------3--3-----3--3-----1--1-----3--3-----5--5-----5-|
E--------5--------5---------3--------3--------1--------3--------5---|

G------------|
D------3-----|
A-5--5-----5-|
E--------5---|

Durante el Solo de guitarra: (Min. 3:40)


G------------------------------------------------10----------------------|
D------3--------3-----------5--------5--------12--------------5------3---|
A-5--5-----5--5-----------7--------7---13--13---------------7---5--5-----|
E--------5--------5--8--8-----8--8------------------5--8--8------------5-|

G------------|
D------3-----|
A-5--5-----5-| (x2)
E--------5---|


Variación: (Min. 4:10)

G-------------------------------------------------------------------------|
D------3--------3-----------5--------5-------3--------3-------------------|
A-5--5-----5--5-----------7--------7---5--5------5--5----13-13-13-13-13s5-|
E--------5--------5--8--8-----8--8-------------5--------5-----------------|

Final: (Min. 4.25)
(Se hace como el intro..)

G------------------------------------------------10----------------------|
D------3--------3-----------5--------5--------12--------------5------3---|
A-5--5-----5--5-----------7--------7---13--13---------------7---5--5-----|
E--------5--------5--8--8-----8--8------------------5--8--8------------5-|

G------------|
D------3-----|
A-5--5-----5-| (x3)
E--------5---|
            
Submit corrections

↑ Back to top | Tablatures and chords for acoustic guitar and electric guitar, ukulele, drums are parodies/interpretations of the original songs. You may use it for private study, scholarship, research or language learning purposes only