Home » E » Enanitos Verdes »

Enanitos Verdes - Igual Que Ayer Tabs

Artists:  A B C D E F G H I J K L M N O P Q R S T U V W X Y Z # 

Igual Que Ayer Tabs

(ver. 1) Click to play this song!
Enanitos Verdes
>>>> IGUAL QUE AYER <<<<


Este es el Intro: todo esta en la escala pentafona de Re hechjenle ganas y sale ya veran

1-------------------------------------------------------------------------------------------|
2-12-13-15-15-13-13-12-13----12-13-13-12-12----15v(17)-12-13-15-15-13-13-12-12-14-14--------|
3-------------------------14----------------14---------------------------------------12-12--|
4-------------------------------------------------------------------------------------------|
5-------------------------------------------------------------------------------------------|
6-------------------------------------------------------------------------------------------|

1-------------------------------------------------------------------------------------------|
2--------15--------15-----------------------------------------------------------------------|
3-14v(16)---14v(16)---14v(16)-12------------------------------------------------------------|
4-------------------------------------------------------------------------------------------|
5-------------------------------------------------------------------------------------------|
6-------------------------------------------------------------------------------------------|

G       Am          D7
Nos conocimos sin saber
            G     G/F#   Em
que un cigarrillo y un café
         Am7           D7            G
serian excusas para el tiempo de los dos
         Am7      D7
voy a salir a caminar
                G      G/F#  Em
y aunque es muy grande la ciudad
      Am7            D7           G
yo presiento que nos vamos a encontrar.

   Bsdim    Bdim
Porqué mantuviste encendida
             Am7
la chispa de nuestro amor
 A#      A        G      F       Bsdim  Bdim
ahora te llevo en cada latido de mi corazón
       Am7      D7           G G/F#  Em
Yo necesito tu amor dame tu am-o  -  or
       Am7      C    Am7       D7
yo necesito tu amor igual que ayer

G         Am7         D7
Cómo explicarte la emoción
           G       G/F#   Em
cuando escuché por fin tu voz
        Am7          D7                G
quedo desierta la ciudad solo para los dos
         Am7         D7
otra vez en el mismo bar
        G     G/F#   Em
un cigarrillo y un café
         Am7           D7            G
viejas excusas de un encuentro sin final

   Bsdim    Bdim
Porqué mantuviste encendida
             Am7
la chispa de nuestro amor
 A#      A        G      F       Bsdim  Bdim
ahora te llevo en cada latido de mi corazón
       Am7      D7           G G/F#  Em
Yo necesito tu amor dame tu am-o  -  or
       Am7      C    Am7       D7
yo necesito tu amor igual que ayer


Aqui va el solo:

1-------------------------------------------------------------------------------14p15p17----|
2--------------15v(17)-15-15v(17)-15-----------------------------------14p15p17-------------|
3-------12-14------------------------14v(16)-14h1214------------14p16-----------------------|
4-12-14------------------------------------------------14p15p17-----------------------------|
5-------------------------------------------------------------------------------------------|
6-------------------------------------------------------------------------------------------|

1-15-14-15-17-------------------------------------------------------------------------------|
2-------------15-15V(17)-15V(17)------------------------------------------------------------|
3----------------------------------14V(16)-14h12p14--------12-14--12p14h12------------------|
4----------------------------------------------------12-12----------------12-14-12----------|
5----------------------------------------------------------------------------------12-14-12-|
6-------------------------------------------------------------------------------------------|

1------------------------------------------------------12-----------------------------------|
2-------------------15-15v-15-15v-15-15v(16)--------12----15-12-----------------------------|
3--------------------------------------------14v-12-------------12s14--14vh12p14-14vh12p14--|
4-------------------------------------------------------------------------------------------|
5----12-10-10s12----------------------------------------------------------------------------|
6-12----------------------------------------------------------------------------------------|

1----------12-------------------------------------------------------------------------------|
2--------12--12-15v(17)-15p17h15--12p15h12--------------------------------------------------|
3-14v(16)---------------------------------14-12p14h12---------------------------------------|
4----------------------------------------------------14-12p14h12----------------------------|
5---------------------------------------------------------------14-12p14h12-----------------|
6--------------------------------------------------------------------------15h12~~~---------|

  BmVII         FVIII   EVII
parece que al final los dos
  AmV          D7V   AmV          D7V
pudimos reaccionar supimos reaccionar

G     Am7        D7
recuperemos el lugar,
          G     G/F#   Em
lugar que nadie mas llenó
          Am7           D7         G
y con las flores del jardín florecerá el amor


   Bsdim    Bdim
Porqué mantuviste encendida
             Am7
la chispa de nuestro amor
 A#      A        G      F       Bsdim  Bdim
ahora te llevo en cada latido de mi corazón
       Am7      D7           G G/F#  Em
Yo necesito tu amor dame tu am-o  -  or
       Am7      C    Am7       D7
yo necesito tu amor igual que ayer

1-------------------------------------------------------------------------------------------|
2-12-13-15-15-13-13-12-13----12-13-13-12-12----15v(17)-12-13-15-15-13-13-12-12-14-14--------|
3-------------------------14----------------14---------------------------------------12-12--|
4-------------------------------------------------------------------------------------------|
5-------------------------------------------------------------------------------------------|
6-------------------------------------------------------------------------------------------|

1------------------------------------19-19----------------------------------------------------|
2-12-13-15-15-13-13-12-13------17-20------20-17-20-17p20-15-----------------------------12-12-|
3-------------------------18p19-----------------------------14v(16)-14v(16)-14-12----12-12-12-|
4---------------------------------------------------------------------------------14----------|
5---------------------------------------------------------------------------------------------|
6---------------------------------------------------------------------------------------------|

ACORDES:
       E    e
Bsdim  x2323x
Bdim   x2313x
BmVII  799777
FVIII  88DDD8 (D=10)
EVII   779997
AmV    577555
D7V    x57575
            
Submit corrections

↑ Back to top | Tablatures and chords for acoustic guitar and electric guitar, ukulele, drums are parodies/interpretations of the original songs. You may use it for private study, scholarship, research or language learning purposes only