Home » E » Enanitos Verdes »

Enanitos Verdes - Amores Lejanos Acoustic Tabs

Artists:  A B C D E F G H I J K L M N O P Q R S T U V W X Y Z # 

Amores Lejanos Acoustic Tabs

(ver. 1) Click to play this song!
Enanitos Verdes
[Intro]

Dm - Am
Dm - Am - G

e|------------------1-----|-----------------0-----|
B|-----0-1-3----------3---|-----1-3h5-3-1-----1---|
G|---2-------2-0--------2-|---2-----------------2-|
D|-2-------------0--------|-3-------------2-------|
A|------------------------|-----------------------|
E|------------------------|-----------------------|

e|------------------1-----|-----------------0---0---|
B|-----0-1-3----------3---|-----1-3h5-3-1---------3-|
G|---2-------2-0--------2-|---2---------------2-----|
D|-2-------------0--------|-3-------------2---------|
A|------------------------|-------------------------|
E|------------------------|-------------------------|


      Dm                         Am    
Esta tarde no pasa nada, las calles parecen desiertas,

   e|----1----------1-----------0---------0--------|
   B|------3----------3---3-------1---------1---1--|
   G|--------2----------2-----------2---------2----|
   D|-0-----------0--------------------------------|
   A|------------------------0---------0-----------|
   E|----------------------------------------------|

     Dm                          Am                G
Carmencita se fue de viaje, y quiza nunca mas la vea.

   e|----1----------1-----------0----------3---3---|
   B|------3----------3---3-------1----------3-----|
   G|--------2----------2-----------2--------------|
   D|-0-----------0--------------------------------|
   A|------------------------0---------------------|
   E|------------------------------------3---------|

      Dm                         Am
yo mirando por la ventana, el asfalto brillando perlas,

   e|-----1----------1-----------0---------0--------|
   B|---2---3----------3---3-------1---------1---1--|
   G|---------2----------2-----------2---------2----|
   D|-0------------0--------------------------------|
   A|-------------------------0---------0-----------|
   E|-----------------------------------------------|

     Dm                F             C                E7       
los lugares que frecuentaba, no me atraen ni me interesan.

   e|----1---------1----------0-----------5----7----8-----12----12--|
   B|------3---------3----------1-----------------------------------|
   G|--------2---------2----------2----/5---/7---/9---/12----12-----|
   D|-0-------------------------------------------------------------|
   A|----------------------0----------------------------------------|
   E|---------------------------------------------------------------|


                  C   G                 Am 
y aunque hoy no estas,     voy planificando

         e|---------0----------------|
         B|---0h1-----1---0h1--------|
         G|-------0-----2-----2-0----|
         D|-2---------------------3--|
         A|--------------------------|
         E|--------------------------|

            F7  G              Am
una y otra vez        amores lejanos.

         e|---------0----------------|
         B|---0h1-----1---0h1--------|
         G|-------0-----2-----2-0----|
         D|-2---------------------3--|
         A|--------------------------|
         E|--------------------------|

                  C    G                     Am
y aunque hoy no estas,       te abro mis brazos

         e|---------0----------------|
         B|---0h1-----1---0h1--------|
         G|-------0-----2-----2-0----|
         D|-2---------------------3--|
         A|--------------------------|
         E|--------------------------|

           F7   G             Am
yo me quedare,       aqui esperando

         e|---------0--|       
         B|---0h1------|
         G|-------0----|
         D|-2----------|
         A|------------|
         E|------------|

[Intro]

e|------------------1-----|-----------------0-----|
B|-----0-1-3----------3---|-----1-3h5-3-1-----1---|
G|---2-------2-0--------2-|---2-----------------2-|
D|-2-------------0--------|-3-------------2-------|
A|------------------------|-----------------------|
E|------------------------|-----------------------|

e|------------------1-----|-----------------0---0---|
B|-----0-1-3----------3---|-----1-3h5-3-1---------3-|
G|---2-------2-0--------2-|---2---------------2-----|
D|-2-------------0--------|-3-------------2---------|
A|------------------------|-------------------------|
E|------------------------|-------------------------|

     Dm                          Am  
Esta tarde no pasa nada, no me puedo olvidar de ella,

   e|--------8---------7---------5---------5-------|
   B|------6---------6---------5---------5---5-----|
   G|----7---------7---------5---------5-----------|
   D|--7---------7---------7---------7-------------|
   A|----------------------------------------------|
   E|----------------------------------------------|

       Dm                                Am               G   
hace un mes que la estoy pensando, y no se si de mi se acuerda.

   e|--------8----------5-------------------3------|
   B|------6---6--6--6-----6--------------3---3----|
   G|----7------------------------------4----------|
   D|--7------------------------------5------------|
   A|----------------------------------------------|
   E|----------------------------------------------|

       Dm                          Am     
mi futuro es algo incierto, pero ese no es el problema,

   e|--------8---------7---------5---------5-------|
   B|------6---------6---------5---------5---5-----|
   G|----7---------7---------5---------5-----------|
   D|--7---------7---------7---------7-------------|
   A|----------------------------------------------|
   E|----------------------------------------------|

      Dm               F            C              E7      
donde pongo mi sentimiento, si esta noche hay luna llena.


   e|--------8----------5----------------3------|----5----7----8-----12----12--|
   B|------6---6--6--6-----6-----------3---3----|------------------------------|
   G|----7---------------------------4----------|-/5---/7---/9---/12----12-----|
   D|--7---------------------------5------------|------------------------------|
   A|-------------------------------------------|------------------------------|
   E|-------------------------------------------|------------------------------|

                  C   G                 Am 
y aunque hoy no estas,     voy planificando

         e|---------0----------------|
         B|---0h1-----1---0h1--------|
         G|-------0-----2-----2-0----|
         D|-2---------------------3--|
         A|--------------------------|
         E|--------------------------|

            F7  G              Am
una y otra vez        amores lejanos.

         e|---------0----------------|
         B|---0h1-----1---0h1--------|
         G|-------0-----2-----2-0----|
         D|-2---------------------3--|
         A|--------------------------|
         E|--------------------------|

                  C    G                     Am
y aunque hoy no estas,       te abro mis brazos

         e|----5----7----8-----10h12p10----8---8---7-----------------|
         B|--------------------------------------------10-----10-10--|
         G|-/5---/7---/9---/12-----------9---9---9---9----9----------|
         D|----------------------------------------------------------|
         A|----------------------------------------------------------|
         E|----------------------------------------------------------|

           F7   G             Am
yo me quedare,       aqui esperando

         e|--------|   
         B|-----1--|
         G|---2----|
         D|-2------|
         A|--------|
         E|--------|

[Solo]
      Dm - Am 
      Dm - Am - G
      Dm - Am
      Dm - F - C - E7

e|------------------|--------|----------------------------------|
B|-----0-1-3--------|-3h5-3--|-8p5------------------------------|
G|---2-------2-0----|--------|-----7p5--7-5-7-------------------|
D|-2-------------0--|--------|-----------------7p5--------------|
A|------------------|--------|---------------------7--7p5s3h5~--|
E|------------------|--------|----------------------------------|

e|-----------------------------------|---------------------------------|
B|-----5-8-6-5---5/-3-------3--------|---------------------------------|
G|-5-7---------7------5-4-5---4s5s4--|---4-5-7-5-4---5-4-----4-5-7-8---|
D|-----------------------------------|-7-----------7-----7-5---------9-|
A|-----------------------------------|---------------------------------|
E|-----------------------------------|---------------------------------|

e|-7h8p7-------------|------|-8-7-----------|-----|
B|-------10-8--8h10--|-8-10-|-----10-8------|-----|
G|-------------------|------|----------7h9--|-7-9-|
D|-------------------|------|---------------|-----|
A|-------------------|------|---------------|-----|
E|-------------------|------|---------------|-----|

e|---8-7------8--|-7p5---10--|-8h10p8----8h10p8--|
B|-x-----10-8----|-----8-----|--------10---------|
G|---------------|-----------|-------------------|
D|---------------|-----------|-------------------|
A|---------------|-----------|-------------------|
E|---------------|-----------|-------------------|

e|-----12----10----8----7-|-7p5~-|
B|------------------------|------|
G|-/11----10----9----/7---|------|
D|------------------------|------|
A|------------------------|------|
E|------------------------|------|

                        C  G               Am 
   y aunque hoy no estas,     voy planificando

         e|---------0----------------|
         B|---0h1-----1---0h1--------|
         G|-------0-----2-----2-0----|
         D|-2---------------------3--|
         A|--------------------------|
         E|--------------------------|

                 F7  G              Am
   una y otra vez        amores lejanos.

         e|---------0----------------|
         B|---0h1-----1---0h1--------|
         G|-------0-----2-----2-0----|
         D|-2---------------------3--|
         A|--------------------------|
         E|--------------------------|
                       C   G                    Am
   y aunque hoy no estas,       te abro mis brazos

         e|----5---3---0--|
         B|---------------|
         G|---------------|
         D|-/5---3---0----|
         A|---------------|
         E|---------------|
                F    G             Am
   yo me quedare,       aqui esperando.

         e|---------0--------| 
         B|---0h1-----1------|
         G|-------2-----2----|
         D|-2-------------2--|
         A|------------------|
         E|------------------|

    oh oh oh oh   oh oh oh oh   oh oh oh oh
e|--------------|--------------|--------------------------------|
B|--------------|--------------|-8h10-10-10-8-10-10-10-8-10-10--|
G|-7h9-7-7s5----|-7h9-7-7s5----|--------------------------------|
D|------------7-|------------7-|--------------------------------|
A|--------------|--------------|--------------------------------|
E|--------------|--------------|--------------------------------|

      oh oh oh oh      oh oh oh oh       oh oh oh oh
e|----------------|---------------|----------------|
B|-10-8-10-10-----|-10-10--8-8-8--|----------------|
G|----------------|---------------|-7-5---5-7------|
D|----------------|---------------|-----7----------|
A|----------------|---------------|----------------|
E|----------------|---------------|----------------|
   
e|-7h8p7-7--------|-------------|
B|---------10-10--|-------------|
G|----------------|-7h9--9-9-9--|
D|----------------|-------------|
A|----------------|-------------|
E|----------------|-------------|

                        C  G               Am 
   y aunque hoy no estas,     voy planificando
                 F7  G              Am
   una y otra vez        amores lejanos.

   e|---5---5---5----7---7---7---8---8---8---7---5---7--|
   B|---------------------------------------------------|
   G|-5---5---5----7---7---7---9---9---9---7---5---7----|
   D|---------------------------------------------------|
   A|---------------------------------------------------|
   E|---------------------------------------------------|

   e|----12----12-----10---8---8---7---5---5-----|
   B|--------------------------------------------|
   G|-12----12-----10----9---9---7---5---5-------|
   D|--------------------------------------------|
   A|--------------------------------------------|
   E|--------------------------------------------|
  
                     C   G                    Am
   y aunque hoy no estas,       te habro mis brazos

         e|-------------3--------------------|
         B|-------0-1h3---3p1---1h3p1--------|
         G|-----2-------------2-------2-0----|
         D|-2-2---------------------------3--|
         A|----------------------------------|
         E|----------------------------------|
                F7    G             Am
   yo me quedare,       aqui esperando.

   e|------12----12----10----10----8----7----5----5--|
   B|------------------------------------------------|
   G|----12----12----10----10----9----7----5----5----|
   D|------------------------------------------------|
   A|------------------------------------------------|
   E|------------------------------------------------|

            
Submit corrections

↑ Back to top | Tablatures and chords for acoustic guitar and electric guitar, ukulele, drums are parodies/interpretations of the original songs. You may use it for private study, scholarship, research or language learning purposes only