Home » E » Empires »

Empires - Please Dont Tell My Lover Tabs

Artists:  A B C D E F G H I J K L M N O P Q R S T U V W X Y Z # 

Please Dont Tell My Lover Tabs

(ver. 1) Click to play this song!
Empires
 Rating:
4.3/5 (25 votes)
                Tuning:standard

Intro
e|-----------palm mute the low E---------------------------------------------|
B|---------------------------------------------------------------------------|
G|---------------------------------------------------------------------------|
D|------2-----------2------------2-----------2-------------------------------|X2
A|------------2-----------2------------2-----------2-------------------------|
E|--5-5---5-5---5-5---5-5----2-2---2-2---2-2---2-2---------------------------|

Verse
e|-----------palm mute the low E---------------------------------------------|
B|---------------------------------------------------------------------------|
G|---------------------------------------------------------------------------|
D|------2-----------2------------2-----------2-------------------------------|X4
A|------------2-----------2------------2-----------2-------------------------|
E|--5-5---5-5---5-5---5-5----2-2---2-2---2-2---2-2---------------------------|

Chorus
e|---------------------|----|------------------------------------------------|
B|---------------------|----|------------------------------------------------|
G|---------------------|----|------------------------------------------------|
D|-----7---7---7---9-9-|-X3-|------7---7---11-11-9-9-------------------------|X2
A|-7h9---9---9---9-----|----|--7h9---9---9-----------------------------------|
E|---------------------|----|------------------------------------------------|

Bridge
e|----------------0---------------0------------------------------------------|
B|---3----5--7----0--3----5--7----0------------------------------------------|
G|---x----6--7----1-------6--7----1------------------------------------------|
D|---4----7--5----2--4----7--5----2------------------------------------------|
A|---2----4--5----2--2----4--5----2------------------------------------------|
E|----------------0---------------0------------------------------------------|            
Submit corrections

↑ Back to top | Tablatures and chords for acoustic guitar and electric guitar, ukulele, drums are parodies/interpretations of the original songs. You may use it for private study, scholarship, research or language learning purposes only