» » »

Emilys Army - Statutory Brainrape Tabs

Artists:  A B C D E F G H I J K L M N O P Q R S T U V W X Y Z # 

Statutory Brainrape Tabs

(ver. 1) Click to play this song!
Emilys Army
 Rating:
4/5 (4 votes)

 Statutory Brainrape lessons Tabs too difficult? Try these video lessons and learn fast
 
                -------------------------------------------------------------------------------
                             Statutory Brainrape - Emily's Army
-------------------------------------------------------------------------------


Tuning: Standard

Intro/Main riff
e|-------------------|
B|-------------------|
G|----------9-9------|
D|-9-9-X777-9-9-X777-|
A|-9-9-X777-7-7-X777-|
E|-7-7-X555-----X555-|

Verse
e|--------------------------------------------------------------|
B|-7----------------7----------------7--------------------------|
G|-9b---------------9b---------------9b-------------------------|
D|------------------------------------------7777777777777777----|
A|------------------------------------------7777777777777777----|
E|------------------------------------------5555555555555555----|
                                             ...............    

Chorus
e|------------------------------------------------------------------|
B|------------------------------------------------------------------|
G|----------9-9---------------9-9---------------9-9---------------9-|
D|-9-9-X777-9-9-X777-9-9-X777-9-9-X777-9-9-X777-9-9-X777-9-9-X777-9-|
A|-9-9-X777-7-7-X777-9-9-X777-7-7-X777-9-9-X777-7-7-X777-9-9-X777-7-|
E|-7-7-X555-----X555-7-7-X555-----X555-7-7-X555-----X555-7-7-X555---|

Bridge
e|-------5555/-7-----5555/-7-----5555/-7-----5555/-7-----|
B|-------5555/-7-----5555/-7-----5555/-7-----5555/-7-----|
G|-------6666/-8-----6666/-8-----6666/-8-----6666/-8-----|
D|-9-----7777/-9-----7777/-9-----7777/-9-----7777/-9-----|
A|-9-----7777/-9-----7777/-9-----7777/-9-----7777/-9-----|
E|-7-----5555/-7-----5555/-7-----5555/-7-----5555/-7-----|


Solo
e|----------------77777777----------------------------------------------|
B|-7-----------10-------------------------------------------------------|
G|-9b-99999999----------------------------------------------------------|
D|----------------------------------------------------------------------|
A|----------------------------------------------------------------------|
E|----------------------------------------------------------------------|
      ........     .......


Really easy song to play. Just listen to the song to find out when to play each 
part 'cause it's really simple.


************************************
| .   palm mute
| /   slide up
| \   slide down
| h   hammer-on
| p   pull-off
| ~   vibrato
| +   harmonic
| x   Mute note
| b   Bend
| pb  Pre-bend
| br  Bend release
| pbr Pre-bend release
| brb Bend release bend

************************************
            
Submit corrections


        Statutory Brainrape lessons Hard to play? Try these video lessons and learn fast Statutory Brainrape lessons
        
↑ Back to top | Tablatures and chords for acoustic guitar and electric guitar, ukulele, drums are parodies/interpretations of the original songs. You may use it for private study, scholarship, research or language learning purposes only