» » »

Emilys Army - I Am The President Tabs

Artists:  A B C D E F G H I J K L M N O P Q R S T U V W X Y Z # 

I Am The President Tabs

(ver. 1) Click to play this song!
Emilys Army
 Rating:
2.5/5 (27 votes)

 I Am The President  lessons Tabs too difficult? Try these video lessons and learn fast
 
                Intro-                 (3x)
e|-------------------|----------------------|
B|-------------------|----------------------|
G|-----------9--9----|-------------9--9-----|
D|-9--9-7--7-9--9--9-|-7-9--9-7--7-9--9--9--|
A|-9--9-7--7-7--7--9-|-7-9--9-7--7-7--7--9--|
E|-7--7-5--5-------7-|-5-7--7-5--5-------7--|

Verse- (8x)
e|----------------------|
B|----------------------|
G|-------------9--9-----|
D|-7-9--9-7--5-9--9--9--|
A|-7-9--9-7--5-7--7--9--|
E|-5-7--7-5--7-------7--|

PreChorus-
e|----------------------------|
B|----------------------------|
G|----------------------------|
D|-5-5-5-5-5-5-5-5-7-7-7-7-7--|
A|-5-5-5-5-5-5-5-5-7-7-7-7-7--|
E|-3-3-3-3-3-3-3-3-5-5-5-5-5--|

Chorus- (4x)
e|-----------------------------|
B|-----------------------------|
G|---------------------9--9-9--|
D|-9-~-9--9-9--7--7-7--9--9-9--|
A|-9-~-9--9-9--7--7-7--7--7-7--|
E|-7-~-7--7-7--5--5-5----------|

PostChorus-
e|------------------0------------------------------------------------------------|
B|------------------0------------------------------------------------------------|
G|------------------0-9-~-9--9--11-~-11-11--14-~-14-14--8-\-------------9--9-----|
D|-9-9-9-9-\7-7-7-7-0-9-~-9--9--11-~-11-11--14-~-14-14--9-\-7-9--9-7--7-9--9--9--|
A|-9-9-9-9-\7-7-7-7-0-7-~ 7--7--9--~-9--9---12-~-12-12--9-\-7-9--9-7--7-7--7--9--|
E|-7-7-7-7-\5-5-5-5-0-----------------------------------7-\-5-7--7-5--5-------7--|

Verse-(repeat)

PreChorus-(repeat)

Chours-(repeat)

PostChorus-
e|------------------0----------------------------------
B|------------------0----------------------------------|
G|------------------0-9-~-9-9--11-~-11-11--14-~-14-14--|
D|-9-9-9-9-\7-7-7-7-0-9-~-9-9--11-~-11-11--14-~-14-14--|
A|-9-9-9-9-\7-7-7-7-0-7-~-7-7--9--~-9--9---12-~-12-12--|
E|-7-7-7-7-\5-5-5-5-0----------------------------------|


-Solo- (not 100% right, but these are the basic guidlines of what notes to use at the parts)
e|----------------------------------------------------------------14+-----14+-----|
B|-------9b-7-7---7---7---7-7---7---9br-9-7---7---7-7---7--7----------------------|
G|---7-9-9b-7-7---7---7---7-7---7---9br-9-7---7---7-7---7--7----------11------11--| 
D|-9------------9---9---9-----9---9---------9---9-----9------9-7------------------|
A|--------------------------------------------------------------------------------|
E|--------------------------------------------------------------------------------|

e|----------------------------------------------------------------------------|
B|---10-12--10-10-10-10-----7-7-7-7-------7---7-/-9-9b--9br-9-7-9--9-7--------|
G|-11-11----11-11-11-11-7---7-7-7-7-------7---7-/-9-9b--9br-9-7-9--9-7-----7--|
D|-------------------------9--------9-7-9---9-------------------------7h-9----|
A|----------------------------------------------------------------------------|
E|----------------------------------------------------------------------------|

e|-----------------------------------------------------------|
B|-----------------------------------------------------------|
G|-----------------------------------------------------------|
D|-9-7--------------------------7-------------------7--------|
A|------7-9-7-5------5------7h-9---5---5---5---7h-9---5---7--|
E|--------------7--7---7-------------7---7---7----------7----|


e|----------------------------------------------------7---|
B|----------------------------------------------------7---|
G|-------------7---7---7-9-9br-7--7-9-9br-7---7-9-/11-----|
D|------7--7-9-------9-----------9----------9-------------|
A|-7h-9---------------------------------------------------|
E|--------------------------------------------------------|

Solo Rythm-
e|---------------------------------------------------------------------------------------|
B|---------------------------------------------------------------------------------------|
G|-----------9--9-----------------9--9-----------------9--9-----------------9-9-9-9------|
D|-9--9-7--7-9--9--9--7-9--9-7--7-9--9--9--7-9--9-7--7-9--9--9--7-9--9-7--7-9-9-9-9-9-7--|
A|-9--9-7--7-7--7--9--7-9--9-7--7-7--7--9--7-9--9-7--7-7--7--9--7-9--9-7--7-7-7-7-7-9-7--|
E|-7--7-5--5-------7--5-7--7-5--5-------7--5-7--7-5--5-------7--5-7--7-5--5---------7-5--|

e|-------------------------------------------------------------------------------------|
B|-------------------------------------------------------------------------------------|
G|-----------9--9-----------------9--9-----------------9--9-----------------9--9-------|
D|-9--9-7--7-9--9--9--7-9--9-7--7-9--9--9--7-9--9-7--7-9--9--9--7-9--9-7--7-9--9--9-7--|
A|-9--9-7--7-7--7--9--7-9--9-7--7-7--7--9--7-9--9-7--7-7--7--9--7-9--9-7--7-7--7--9-7--|
E|-7--7-5--5-------7--5-7--7-5--5-------7--5-7--7-5--5-------7--5-7--7-5--5-------7-5--|

e|----------------------------|
B|----------------------------|
G|----------------------------|
D|-5-5-5-5-5-5-5-5-7-7-7-7-7--|
A|-5-5-5-5-5-5-5-5-7-7-7-7-7--|
E|-3-3-3-3-3-3-3-3-5-5-5-5-5--|

Chorus- (repeat)

PostChorus-
e|------------------0---------------------------------------|
B|------------------0---------------------------------------|
G|------------------0-9-~-9-9--11-~-11-11--14-~-14-14-14-\--|
D|-9-9-9-9-\7-7-7-7-0-9-~-9-9--11-~-11-11--14-~-14-14-14-\--|
A|-9-9-9-9-\7-7-7-7-0-7-~-7-7--9--~-9--9---12-~-12-12-12-\--|
E|-7-7-7-7-\5-5-5-5-0---------------------------------------|

Outro-
e|---------------------------------------------------------------|
B|---------------------------------------------------------------|
G|---------------------------------------------------------------|
D|--------7-9-\---------7-9-\--------7-9-\------7-7-7-7-7-7-9-\--|
A|--------7-9-\---------7-9-\--------7-9-\------7-7-7-7-7-7-9-\--|
E|--------5-7-\---------5-7-\--------5-7-\------5-5-5-5-5-5-7-\--|            
Submit corrections


        I Am The President  lessons Hard to play? Try these video lessons and learn fast I Am The President  lessons
        
↑ Back to top | Tablatures and chords for acoustic guitar and electric guitar, ukulele, drums are parodies/interpretations of the original songs. You may use it for private study, scholarship, research or language learning purposes only