» » »

Emilys Army - High Waisted Shorts Tabs

Artists:  A B C D E F G H I J K L M N O P Q R S T U V W X Y Z # 

High Waisted Shorts Tabs

(ver. 1) Click to play this song!
Emilys Army
 Rating:
4/5 (4 votes)

 High Waisted Shorts  lessons Tabs too difficult? Try these video lessons and learn fast
 
                Verse 1:

I put my hands on the belt loops...

E|---------------------------------------------------------------------------------------------|
B|---------------------------------------------------------------------------------------------|
G|--9--9--9-------------------9--9--9-------------------9--9--9---------------------------- 9--|
D|--9--9--9------9--9--9------9--9--9------7--7--7------9--9--9------9--9--9----7----9------9--|
A|--7--7--7------9--9--9------7--7--7------7--7--7------7--7--7------9--9--9----7----9------7--|
E|------------- -7--7--7-------------------5--5--5-------------------7--7--7----5----7---------|

Interlude between verses:

E|-----------------|
B|-----------------|
G|-----------------|
D|--9--9--9--------|
A|--9--9--9--------|
E|--7--7--7--------|

Verse 2:

You take my hand...

E|---------------------------------------------------------------------------------------------|
B|---------------------------------------------------------------------------------------------|
G|--9--9--9-------------------9--9--9-------------------9--9--9---------------------------- 9--|
D|--9--9--9------9--9--9------9--9--9------7--7--7------9--9--9------9--9--9----7----9------9--|
A|--7--7--7------9--9--9------7--7--7------7--7--7------7--7--7------9--9--9----7----9------7--|
E|------------- -7--7--7-------------------5--5--5-------------------7--7--7----5----7---------|

Chorus

I put my hands on your...

E|---------------------------------------------------------------------------------------|
B|---------------------------------------------------------------------------------------|
G|---------------11--11--11-------------------9--9--9------------------------------------|
D|--9--9--9------11--11--11------7--7--7------9--9--9------9--9--9------7--7--7--STOP----|
A|--9--9--9------9---9---9-------7--7--7------7--7--7------9--9--9------7--7--7----------|
E|--7--7--7----------------------5--5--5-------------------7--7--7------5--5--5----------|


Interlude before verse:


E|-------------------------|
B|-------------------------|
G|--9--9--9----------------|
D|--9--9--9------9--9--9---|
A|--7--7--7------9--9--9---|
E|-------------- 7--7--7---|            
Submit corrections


        High Waisted Shorts  lessons Hard to play? Try these video lessons and learn fast High Waisted Shorts  lessons
        
↑ Back to top | Tablatures and chords for acoustic guitar and electric guitar, ukulele, drums are parodies/interpretations of the original songs. You may use it for private study, scholarship, research or language learning purposes only