» » »

Emilys Army - Ammonia And Bleach Tabs

Artists:  A B C D E F G H I J K L M N O P Q R S T U V W X Y Z # 

Ammonia And Bleach Tabs

(ver. 1) Click to play this song!
Emilys Army
 Rating:
2.3/5 (24 votes)

 Ammonia And Bleach  lessons Tabs too difficult? Try these video lessons and learn fast
 
                Tuning: E-A-D-G-B-e

Intro- Guitar 1(x4)
e|---------------------------------------------------------------------------|
B|---------------------------------------------------------------------------|
G|---------------------------------------------------------------------------|
D|-9-9-9-x-8-8-8-8-9-9-9-x-8-8-8-8-9-9-9-x-8-8-8-8-------8-8-8-8-8-----------|
A|-7-7-7-x-6-6-6-6-7-7-7-x-6-6-6-6-7-7-7-x-6-6-6-6-6-6-6-6-6-6-6-6-----------|
E|-------------------------------------------------4-4-4---------------------|

Intro - Guitar 2
e|---------------------------------------------------------------------------|
B|---------------------------------------------------------------------------|
G|-9-8--8-9-8--8-9-8--8-6-8--9-8--8-9-8--8-9-8--8-6-4b-----------------------|
D|---------------------------------------------------------------------------|
A|---------------------------------------------------------------------------|
E|---------------------------------------------------------------------------|
Verse- Guitar 1
e|--------------------------------------------------------------------------------------------------|
B|--------------------------------------------------------------------------------------------------|
G|--------------------------------------------------------------------------------------------------|
D|--------------------------------------------------------------------------------------------------|
A|-----------------------------------------------------------------7-7-7-7-7-7-7-7-7-7-7-7-7-7-7-7--|
E|-7-7-7-7-7-7-7-7-4-4-4-4-4-4-4-4-7-7-7-7-7-7-7-7-4-4-4-4-4-4-4-4----------------------------------|

e|----------------------------------|
B|----------------------------------|
G|----------------------------------|
D|----------------------------------|
A|-9-9-9-9-9-9-9-9-9-7-7-7-7-7-7-7--|
E|----------------------------------|

e|--------------------------------------------------------------------------------------------------|
B|--------------------------------------------------------------------------------------------------|
G|--------------------------------------------------------------------------------------------------|
D|--------------------------------------------------------------------------------------------------|
A|-----------------------------------------------------------------7-7-7-7-7-7-7-7-7-7-7-7-7-7-7-7--|
E|-7-7-7-7-7-7-7-7-4-4-4-4-4-4-4-4-7-7-7-7-7-7-7-7-4-4-4-4-4-4-4-4----------------------------------|


e|------------------------------------|
B|------------------------------------|
G|------------------------------------|
D|------------------------------------|
A|-9-9-9-9-9-9-9-9-9-9-9-9-9-9-9-9-9--|
E|------------------------------------|

Guitar 2- (only on last half)
e|-0--------------2--------------|
B|-0--------------2--------------|
G|-1-~------9-~---3-~------11-~--|
D|-2-~------9-~---4-~------11-~--| listen for when it comes in
A|-2-~--or--7-~---4-~--or--9--~--|
E|-0-~------------2-~------------|

PreChorus- 
e|----------------------------------------------------------|
B|----------------------------------------------------------|
G|-9-x-x-x-x-x-x---------------9-x-x-x-x-x-x----------------|
D|-9-x-x-x-x-x-x-9-x-x-x-x-x-x-9-x-x-x-x-x-x-9-x-x-x-x-x-x--|
A|-7-x-x-x-x-x-x-9-x-x-x-x-x-x-7-x-x-x-x-x-x-9-x-x-x-x-x-x--|
E|---------------7-x-x-x-x-x-x---------------7-x-x-x-x-x-x--|

e|--------------------------------------------|
B|--------------------------------------------|
G|-9-~--11-~-11-11-11-11-11-11-x-9-9-9-9-9-9--|
D|-9-~--11-~-11-11-11-11-11-11-x-9-9-9-9-9-9--|
A|-7-~--9--~-9--9--9--9--9--9--x-7-7-7-7-7-7--|
E|--------------------------------------------|

Chorus-
e|--------------------------------------------------------------------------|
B|--------------------------------------------------------------------------|
G|-----------------9-9-9-----------11-11-11-11-11-11-11-11-9-9-9-9-9-9-9-9--|
D|-9-9-9-9-9-9-9-9-9-9-9-9-9-9-9-9-11-11-11-11-11-11-11-11-9-9-9-9-9-9-9-9--|
A|-9-9-9-9-9-9-9-9-7-7-7-9-9-9-9-9-9--9--9--9--9--9--9--9--7-7-7-7-7-7-7-7--|
E|-7-7-7-7-7-7-7-7-------7-7-7-7-7------------------------------------------|

e|--------------------------------------------------------------------------|
B|--------------------------------------------------------------------------|
G|-----------------9-9-9-----------11-11-11-11-11-11-11-11-9-9-9-9-9-9-9-9--|
D|-9-9-9-9-9-9-9-9-9-9-9-9-9-9-9-9-11-11-11-11-11-11-11-11-9-9-9-9-9-9-9-9--|
A|-9-9-9-9-9-9-9-9-7-7-7-9-9-9-9-9-9--9--9--9--9--9--9--9--7-7-7-7-7-7-7-7--|
E|-7-7-7-7-7-7-7-7-------7-7-7-7-7------------------------------------------|

e|------------------------------------------|
B|-11-11-11-11-11-11-11-11-9-9-9-9-9-9-x-x--|
G|-11-11-11-11-11-11-11-11-9-9-9-9-9-9-x-x--|
D|-11-11-11-11-11-11-11-11-9-9-9-9-9-9-x-x--|
A|-9--9--9--9--9--9--9--9--7-7-7-7-7-7-x-x--|
E|------------------------------------------|

e|------------------------------------------------------------------|
B|------------------------------------------------------------------|
G|-9-9-9-9-8-8-8-8-9-9-9-9-8-8-8-8-9-9-9-9-8-8-8-8---------8-8-8-8--|
D|-9-9-9-9-8-8-8-8-9-9-9-9-8-8-8-8-9-9-9-9-8-8-8-8-6-6-6-6-8-8-8-8--|
A|-7-7-7-7-6-6-6-6-7-7-7-7-6-6-6-6-7-7-7-7-6-6-6-6-6-6-6-6-6-6-6-6--|
E|-------------------------------------------------4-4-4-4----------|

e|------------------------------------------------------------------|
B|------------------------------------------------------------------|
G|-9-9-9-9-8-8-8-8-9-9-9-9-8-8-8-8-9-9-9-9-8-8-8-8---------8-8-8-8--|
D|-9-9-9-9-8-8-8-8-9-9-9-9-8-8-8-8-9-9-9-9-8-8-8-8-6-6-6-6-8-8-8-8--|
A|-7-7-7-7-6-6-6-6-7-7-7-7-6-6-6-6-7-7-7-7-6-6-6-6-6-6-6-6-6-6-6-6--|
E|-------------------------------------------------4-4-4-4----------|

Verse-

Guitar 1
e|----------------------------------------------------------------------------------------------------|
B|----------------------------------------------------------------------------------------------------|
G|----------------------------------------------------------------------------------------------------|
D|----------------------------------------------------------------------------------------------------|
A|-------------------------------------------------------------------7-7-7-7-7-7-7-7-7-7-7-7-7-7-7-7--|
E|-7-7-7-7-7-7-7-7-4--4--4--4--4--4--7-7-7-7-7-7-7-7-4-4-4-4-4-4-4-4----------------------------------|

e|----------------------------------|
B|----------------------------------|
G|----------------------------------|
D|----------------------------------|
A|-9-9-9-9-9-9-9-9-9-7-7-7-7-7-7-7--|
E|----------------------------------|

e|----------------------------------------------------------------------------------------------------|
B|----------------------------------------------------------------------------------------------------|
G|----------------------------------------------------------------------------------------------------|
D|----------------------------------------------------------------------------------------------------|
A|-------------------------------------------------------------------7-7-7-7-7-7-7-7-7-7-7-7-7-7-7-7--|
E|-7-7-7-7-7-7-7-7-4--4--4--4--4--4--7-7-7-7-7-7-7-7-4-4-4-4-4-4-4-4----------------------------------|

e|----------------------------------|
B|----------------------------------|
G|----------------------------------|
D|----------------------------------|
A|-9-9-9-9-9-9-9-9-9-9-9-9-9-9-9-9--|
E|----------------------------------|

Guitar 2 (all the way through)

e|-0--------------2--------------|
B|-0--------------2--------------|
G|-1-~------9-~---3-~------11-~--| listen for when it comes in
D|-2-~------9-~---4-~------11-~--|
A|-2-~--or--7-~---4-~--or--9--~--|
E|-0-~------------2-~------------|

PreChours- (repeat)

Chorus- (repeat)

ReIntro-
Guitar 1- (x2)
e|---------------------------------------------------------------------------|
B|---------------------------------------------------------------------------|
G|---------------------------------------------------------------------------|
D|-9-9-9-x-8-8-8-8-9-9-9-x-8-8-8-8-9-9-9-x-8-8-8-8-------8-8-8-8-8-----------|
A|-7-7-7-x-6-6-6-6-7-7-7-x-6-6-6-6-7-7-7-x-6-6-6-6-6-6-6-6-6-6-6-6-----------|
E|-------------------------------------------------4-4-4---------------------|


Guitar 2- 
e|---------------------------------------------------------------------------|
B|---------------------------------------------------------------------------|
G|-9-8--8-9-8--8-9-8--8-6-8--9-8--8-9-8--8-9-8--8-6-8------------------------|
D|---------------------------------------------------------------------------|
A|---------------------------------------------------------------------------|
E|---------------------------------------------------------------------------|

Bridge-
Guitar 2
e|----------------------------------------------------------------------------------------|
B|---------------------------------------11-11-11-11-11-11-11-11-11-11-11-11-11-11-11-11--|
G|-12-~---11-~---12-~---11-~---12-~--11--11-11-11-11-11-11-11-11-11-11-11-11-11-11-11-11--|
D|-12-~---11-~---12-~---11-~---12-~--11---------------------------------------------------|
A|-10-~---9--~---10-~---9--~---10-~--9----------------------------------------------------|
E|----------------------------------------------------------------------------------------|

Guitar 1
e|----------------------------------------------------|
B|----------------------------------------------------|
G|-12------11------12------11-------12------11--------|
D|-12-(x8)-11-(x8)-12-(x8)-11-((x8)-12-(x8)-11-(x16)--|
A|-10------9-------10------9--------10------9---------|
E|----------------------------------------------------|

Chorus-

Guitar 1- (bass only first time)
e|------------------------------------------------------------------|
B|------------------------------------------------------------------|
G|------------------------------------------------------------------|
D|------------------------------------------------------------------|
A|-----------------7-7-7-----------9-9-9-9-9-9-9-9-7-7-7-7-7-7-7-7--|
E|-7-7-7-7-7-7-7-7-------7-7-7-7-7----------------------------------|

e|--------------------------------------------------|
B|--------------------------------------------------|
G|--------------------------------------------------|
D|--------------------------------------------------|
A|-----------------7-7-7-----------9-9-9-9-9-9-9-7--|
E|-7-7-7-7-7-7-7-7-------7-7-7-7-7------------------|

Guitar 2- (first time)
e|---------------------------------------------------------------------------|
B|---------------------------------------------------------------------------|
G|-/-14-~--------------------------------------------------------------------|
D|---------------------------------------------------------------------------|
A|---------------------------------------------------------------------------|
E|---------------------------------------------------------------------------|

(second time)
e|---------------------------------------------------------------------------|
B|---------------------------------------------------------------------------|
G|---------------------------------------------------------------------------|
D|-7-(just play this note until the break)-----------------------------------|
A|---------------------------------------------------------------------------|
E|---------------------------------------------------------------------------|

Chorus- 
(repeat last half)

Outro-

Guitar 1 (x2)
e|---------------------------------------------------------------------------|
B|---------------------------------------------------------------------------|
G|---------------------------------------------------------------------------|
D|-9-9-9-x-8-8-8-8-9-9-9-x-8-8-8-8-9-9-9-x-8-8-8-8-------8-8-8-8-8-----------|
A|-7-7-7-x-6-6-6-6-7-7-7-x-6-6-6-6-7-7-7-x-6-6-6-6-6-6-6-6-6-6-6-6-----------|
E|-------------------------------------------------4-4-4---------------------|

Guitar 2
e|---------------------------------------------------------------------------|
B|---------------------------------------------------------------------------|
G|-9-8--8-9-8--8-9-8--8-6-8--9-8--8-9-8--8-9-8--8-6-8------------------------|
D|---------------------------------------------------------------------------|
A|---------------------------------------------------------------------------|
E|---------------------------------------------------------------------------|

e|---------------------------------------------------------------------------|
B|---------------------------------------------------------------------------|
G|-9-8--8-9-8--8-9-8--8-6-8--9-8--8-9-8--8-9-8--8-6-8b-/---------------------|
D|---------------------------------------------------------------------------|
A|---------------------------------------------------------------------------|
E|---------------------------------------------------------------------------|            
Submit corrections


        Ammonia And Bleach  lessons Hard to play? Try these video lessons and learn fast Ammonia And Bleach  lessons
        
↑ Back to top | Tablatures and chords for acoustic guitar and electric guitar, ukulele, drums are parodies/interpretations of the original songs. You may use it for private study, scholarship, research or language learning purposes only