» » »

Emil Bulls - When God Was Sleeping Bass

Artists:  A B C D E F G H I J K L M N O P Q R S T U V W X Y Z # 

When God Was Sleeping Bass

(ver. 1) Click to play this song!
Emil Bulls
 Rating:
4.2/5 (5 votes)
                Hier ist mein Basstab zum tab von necriononguitar (pewpew).
Guckt euch auch gerne meine anderen tabs von EB an!

Tuning ist Drop C!


Intro:
G------------------------------------------------|
D------------------------------------------------|
A------------------------------------------------|
E--000-10--000-10--000-10--000-10/11-------------|

Vers:
G------------------------------------------------|
D------------------------------------------------|
A------------------------------------------------|
E---8-8-8-8------5-5-5-5-------8-8-8-8-----------|

Pre Chorus:
G------------------------------------------------|
D------------------------------------------------|
A------------------------------------------------|
E---000-10--000-10--000-10--000-10---------------|

Chorus:
G---------------------------------------------------------------------------|
D---------------------------------------------------------------------------|
A---------------------------------------------------------------------------|
E---000-000-000-000--777-777-777-777--888-888-888-888--888-888-888-333------|

Breakdown:
G------------------------------------------------|
D------------------------------------------------|
A------------------------------------------------|
E---0-0-0---0-0-0---0-0-0---0-0-0----------------|

Bridge:
G--------------------------------------------------------------------|
D--------------------------------------------------------------------|
A--------------------------------------------------------------------|
E---8-x16-----5-x-16------8-x16----0-22--2-33--3-55--5-77------------|

und das waren schon alle parts!
guckt euch bitte meine anderen EB tabs an!
            
Submit corrections

↑ Back to top | Tablatures and chords for acoustic guitar and electric guitar, ukulele, drums are parodies/interpretations of the original songs. You may use it for private study, scholarship, research or language learning purposes only