» » »

Emil Bulls - This Day Tabs

Artists:  A B C D E F G H I J K L M N O P Q R S T U V W X Y Z # 

This Day Tabs

(ver. 1) Click to play this song!
Emil Bulls
 Rating:
4/5 (4 votes)
    This Day lessons Tabs too difficult? Try these video lessons and learn fast
                Tuning: Drop Db (I know they tune their guitars 1 1/2 full steps down, but my tuning
                  is faster to tune and the strings don't get so loose. Actually it 
                  doesn't matter which tuning you use. If want to play it in the real 
                  tuning, you have set everything to steps higher exept the lowest string)

guitar 1: lead guitar
guitar 2: rhythm guitar


Intro: (both guitars, guitar 1 w/flanger)
  |- - - - - - 3x - - - - - - - - -|
Eb|--------------------------------|----------------------|
Bb|--------------------------------|----------------------|
Gb|--------------------------------|----------------------|
Db|-1--1---1--1---1--1---1-1--1-1--|-1--1---1--1---5------|
Ab|-1--1---1--1---1--1---1-1--1-1--|-1--1---1--1---5------|
Db|-1--1---1--1---1--1---1-1--1-1--|-1--1---1--1---5------|


Verse: (guitar 1)
Eb|---------------------------------------------------|
Bb|---------------------------------------------------| 4x
Gb|------------7-6-5----------------------------------|
Db|-3h5--7--8------------10/12-10-12/13-12-10--8-7-5--|
Ab|---------------------------------------------------|
Db|---------------------------------------------------|

guitar 2 comes in after 2x:
                   |- - - - 4x - - -|
Eb|-x-x--x-x-x-x-x-|----------------|
Bb|-x-x--x-x-x-x-x-|----------------|
Gb|-x-x--x-x-x-x-x-|----------------|
Db|-x-x--x-x-x-x-x-|-1----3----5----|
Ab|-x-x--x-x-x-x-x-|-1----3----5----|
Db|-x-x--x-x-x-x-x-|-1----3----5----|


Pre-Chorus: (both guitars)
Eb|--------------------------|
Bb|--------------------------|
Gb|--------------------------|
Db|-1--1---1--1---1--1---5---|
Ab|-1--1---1--1---1--1---5---|
Db|-1--1---1--1---1--1---5---|

Chorus: (guitar 2)
Eb|----------------------------------|
Bb|----------------------------------| 4x
Gb|-3-3-3-3--------------------------|
Db|-3-3-3-3-1-1-1-1-5-5-5-5-5-5-5-5--|
Ab|-1-1-1-1-1-1-1-1-5-5-5-5-5-5-5-5--|
Db|---------1-1-1-1-5-5-5-5-5-5-5-5--|
  | (guitar 1):
Eb|----------------------------------|
Bb|----------------------------------|
Gb|-10~-----3~------7~---------------|
Db|----------------------------------|
Ab|----------------------------------|
Db|----------------------------------|

After Chorus:
Eb|----------------|
Bb|----------------| 2x
Gb|----------------|
Db|-1----3----5----|
Ab|-1----3----5----|
Db|-1----3----5----|


Verse

Pre-Chorus
Chorus


Solo:  (guitar 1)
Eb|-----6-----------------------------------|
Bb|-6---6-----------------------------------|
Gb|----------/8-7--------/8-7----/8-7-------|
Db|----------------10---------8--------10---|
Ab|-----------------------------------------|
Db|-----------------------------------------|

Eb|-----6------------------------------------------|
Bb|-6---6----------8--------------------------6----|
Gb|----------/8-7------/8-7-----/8-7--8-7--8-------|
Db|--------------------------8---------------------|
Ab|------------------------------------------------|
Db|------------------------------------------------|

(guitar 2)
Eb|------------------------------------------------------------------------------------|
Bb|------------------------------------------------------------------------------------|
Gb|------------------------------------5-------------------5---------------------------|
Db|-1-1--1-1--1-1--3----1-1--1-1--1-1--5----1-1--1-1--1-1--5----1-1--1-1--6-5--6-5--6--|
Ab|-1-1--1-1--1-1--3----1-1--1-1--1-1--3----1-1--1-1--1-1--3----1-1--1-1--6-5--6-5--6--|
Db|-1-1--1-1--1-1--3----1-1--1-1--1-1-------1-1--1-1--1-1-------1-1--1-1--6-5--6-5--6--|


Chorus 2x

end with:
Eb|----------------|
Bb|----------------|
Gb|----------------|
Db|-5-5-----5-5----|
Ab|-5-5-----5-5----|
Db|-5-5-----5-5----|


I don't know, if the verse is 100% right, but I can't really hear what he's playing
with his crazy effect. If you have the verse, any other corrections, comments or
            
Submit corrections

↑ Back to top | Tablatures and chords for acoustic guitar and electric guitar, ukulele, drums are parodies/interpretations of the original songs. You may use it for private study, scholarship, research or language learning purposes only