» » »

Emil Bulls - Leaving You With This Bass

Artists:  A B C D E F G H I J K L M N O P Q R S T U V W X Y Z # 

Leaving You With This Bass

(ver. 1) Click to play this song!
Emil Bulls
 Rating:
4/5 (4 votes)
                
* = play 8 times

Riff 1    2x
G|---------------------------------------------------------------------------|
D|---------------------------------------------------------------------------|
A|---------------------------------------------------------------------------|
E|-7*-3*-5*-7*---------------------------------------------------------------|

Riff2     4x
G|---------------------------------------------------------------------------|
D|---------------------------------------------------------------------------|
A|---------------------------------------------------------------------------|
E|-7*------------------------------------------------------------------------|

Verse
G|---------------------------------------------------------------------------|
D|---------------------------------------------------------------------------|
A|---------------------------------------------------------------------------|
E|-7-77-3-33-5-55-7-77-7-77-3-33-5-55-7--------------------------------------|

Riff 1    2x

Riff 2    4x

Chorus    4x
G|---------------------------------------------------------------------------|
D|---------------------------------------------------------------------------|
A|------5555-----------5-2---------------------------------------------------|
E|-7777------3333-0000-----3-------------------------------------------------|

Verse

Riff 1    2x

Riff 2    4x

Chorus    4x

End with
G|---------------------------------------------------------------------------|
D|---------------------------------------------------------------------------|
A|---------------------------------------------------------------------------|
E|-7-------------------------------------------------------------------------|
            
Submit corrections

↑ Back to top | Tablatures and chords for acoustic guitar and electric guitar, ukulele, drums are parodies/interpretations of the original songs. You may use it for private study, scholarship, research or language learning purposes only