Home » E » Emf »

Emf - Unbelievable Bass

Artists:  A B C D E F G H I J K L M N O P Q R S T U V W X Y Z # 

Unbelievable Bass

(ver. 3) Click to play this song!
Emf
Unbelievable by EMF, Bass tab 

TUNING: Eb A D G

Intro
G |--------|--------|
D |--------|--------|
A |--------|-4---6--|  x2
Eb|-5------|--------|


Verse part
G |----------|---------|----------|---------|
D |----------|---------|----------|---------|
A |----------|---------|-4--4-2-4-|---------|
Eb|-5--5-3-5-|---0-3-4-|----------|---0-3-4-|


   (last time before chorus)
G |----------|---------|----------|
D |----------|---------|----------|
A |----------|---------|-4--------|
Eb|-5--5-3-5-|---0-3-4-|----------|


Chorus
G |--------|-----------|--------|---------|
D |--------|-----------|--------|---------|
A |--------|-2--2--2---|-3-4-4--|-2--2----|
Eb|-5-3-5--|---5--5----|--------|---5--5-6|


   (repeat this until next verse (in second chorus) Played once first time)
G |--------|-----------|--------|---------|
D |--------|-----------|--------|---------|
A |--------|-2--2--2---|-3-4-4--|-2--2----| 
Eb|-6-5-5--|---5--5----|--------|---5--5-6|

There are variations with playing 4 notes in the first 
and third bar of the chorus this is mostly done by 
repeating the last note in that bar.

There is also an additional variation in the chorus near 
the end where they stop in bar three after having just
played two notes in that bar.


Feel free to contact me if you have any comments or improvements =D

SRSN
            
Submit corrections

↑ Back to top | Tablatures and chords for acoustic guitar and electric guitar, ukulele, drums are parodies/interpretations of the original songs. You may use it for private study, scholarship, research or language learning purposes only