» » »

Emery - Im Not Here For Rage Im Here For Revenge Tabs

Artists:  A B C D E F G H I J K L M N O P Q R S T U V W X Y Z # 

Im Not Here For Rage Im Here For Revenge Tabs

(ver. 1) Click to play this song!
Emery
 Rating:
4/5 (4 votes)

 Im Not Here For Rage Im Here For Revenge lessons Tabs too difficult? Try these video lessons and learn fast
 
                -------------------------------------------------------------------------------
          I'm Not Here for Rage I'm Here for Revenge  - Emery
-------------------------------------------------------------------------------

Tuning:Drop C

e|-13h15p13----------13----------------------------------------------------13----|
B|----------15-13-15----15-13-15-13----------15-----------------15---------------|
G|----------------------------------15-14-15----15-14--15p14h15----15p14h15------|
D|-------------------------------------------------------------------------------|
A|-------------------------------------------------------------------------------|
E|-------------------------------------------------------------------------------|

e|-15p13----13-17p13----13-18p13----13--22b23-18----------18----------22--|------|
B|-------15----------15----------15--------------20p18h20----20p18h20-----|---15-|
G|------------------------------------------------------------------------|x2----|
D|------------------------------------------------------------------------|------|
A|------------------------------------------------------------------------|------|
E|------------------------------------------------------------------------|------|

On the second time, end on 2nd string, 15th fret.
            
Submit corrections


        Im Not Here For Rage Im Here For Revenge lessons Hard to play? Try these video lessons and learn fast Im Not Here For Rage Im Here For Revenge lessons
        
↑ Back to top | Tablatures and chords for acoustic guitar and electric guitar, ukulele, drums are parodies/interpretations of the original songs. You may use it for private study, scholarship, research or language learning purposes only