» » »

Emery - Cutthroat Collapse Tabs

Artists:  A B C D E F G H I J K L M N O P Q R S T U V W X Y Z # 

Cutthroat Collapse Tabs

(ver. 1) Click to play this song!
Emery
 Rating:
4/5 (4 votes)

 Cutthroat Collapse  lessons Tabs too difficult? Try these video lessons and learn fast
 
                "TIME RUNS OUT"
d#|---------------------------------------------------------------------------|
 C|---------------------------------------------------------------------------|
G#|---5-5-----5-5-----5-5----------------5-5-----5-5-----5-5------------------|
D#|----7-7-----7-7-----7-7--8--5--7-------7-7-----7-7-----7-7--7-5------------|
A#|-0-------0-------0-------8--5--7----0-------0-------0-----------8----------|
D#|-0-------0-------0-------8--5--7----0-------0-------0----------------------|

"THOSE WORDS SEEMED SO SINCERE"
d#|-12p10---------12p10---------12p10-----------------------------------------|
 C|------13p10-10------13p10-10------13p10-10---------------------------------|
G#|-------------------------------------------12b14-14-14-14b12---------------|
D#|---------------------------------------------------------------------------|
A#|---------------------------------------------------------------------------|
D#|---------------------------------------------------------------------------|

"I'VE BEEN SO LONELY HERE"
d#|-12p10---------12p10---------12p10-----------------------------------------|
 C|------13p10-10------13p10-10------13p10-10---------------------------------|
G#|---------------------------------------------------------------------------|
D#|--------------------------------------------12s0---------------------------|
A#|--------------------------------------------12s0---------------------------|
D#|--------------------------------------------12s0---------------------------|

"MARKED! BY HANDS"
d#|---------------------------------------------------------------------------|
 C|------------------------5s6--6--6-6--------------------------5s6--6--6-6---|
G#|------------------------4s5--5--5-5--------------------------4s5--5--5-5---|
D#|-0-0---0-0-0--0---0-0---2s3--3--3-3---0-0---0-0-0--0---0-0---2s3--3--3-3---|
A#|-0-0---0-0-0--0---0-0---0-------------0-0---0-0-0--0---0-0---0-------------|
D#|-0-0---0-0-0--0---0-0---0-------------0-0---0-0-0--0---0-0---0-------------|

"I can still hear the trees, at my back and haunting me"
d#|---------10----------------10----------------10--------------10------------|
 C|---10--10--10--10----10--10--10--10----10--10--10--10---10-10--10-10-------|
G#|-14--14------14----12--12------12----10--10------10----7--7------7---------|
D#|---------------------------------------------------------------------------|
A#|---------------------------------------------------------------------------|  \
D#|---------------------------------------------------------------------------|   \
                                                                                   } X2
"Unafraid, unaffected, this has all gone so wrong"                                /
d#|-----5---------5---------5---------5---------------------------------------|  /
 C|--6-6-6-6---6-6-6-6---6-6-6-6---6-6-6-6------------------------------------|
G#|-9-9---9---7-7---7---9-9---9---7-7---7-------------------------------------|
D#|---------------------------------------------------------------------------|
A#|---------------------------------------------------------------------------|
D#|---------------------------------------------------------------------------|

"Outside you will find the ring that once belonged to me"
d#|----------8----------------------------------------------------------------|
 C|-8-10-8-10--10-8-10---8-10-8-10-10--10-8-----------------------------------|
G#|---7-7--7-----7-7--7---7--7-7-----------10-9-7-----------------------------|  X4
D#|---------------------------------------------------------------------------|
A#|---------------------------------------------------------------------------|
D#|---------------------------------------------------------------------------|

"It's such a blur"
d#|---------------5-5-6-6-8-8-8-8---------------------------------------------|
 C|----------------6-6-6-6-6-6-6-6--------------------------------------------|
G#|---------------------------------------------------------------------------|
D#|-8-7-5--5------------------------------------------------------------------|
A#|------8--8-7-5-------------------------------------------------------------|
D#|---------------------------------------------------------------------------|

"INVISIBLE PLANS YOU MADE DECONSTRUCT ME"
d#|---------------------------------------------------------------------------|
 C|---------------------------------------------------------------------------|
G#|---5-5-----5-5-----5-5----------------5-5-----5-5-----5-5------------------|
D#|----7-7-----7-7-----7-7--8--5--7-------7-7-----7-7-----7-7--7-5------------|
A#|-0-------0-------0-------8--5--7----0-------0-------0-----------8----------|
D#|-0-------0-------0-------8--5--7----0-------0-------0----------------------|

"If it's grey then, just leave it"
d#|---------10----------------10----------------10--------------10------------|
 C|---10--10--10--10----10--10--10--10----10--10--10--10---10-10--10-10-------|
G#|-14--14------14----12--12------12----10--10------10----7--7------7---------|
D#|---------------------------------------------------------------------------|
A#|---------------------------------------------------------------------------|  \
D#|---------------------------------------------------------------------------|   \
                                                                                   } X2
"So guard yourself, that's what my folks used to say"                             /
d#|-----5---------5---------5---------5---------------------------------------|  /
 C|--6-6-6-6---6-6-6-6---6-6-6-6---6-6-6-6------------------------------------|
G#|-9-9---9---7-7---7---9-9---9---7-7---7-------------------------------------|
D#|---------------------------------------------------------------------------|
A#|---------------------------------------------------------------------------|
D#|---------------------------------------------------------------------------|
 
"Outside you will find the ring that once belonged to me"
d#|----------8----------------------------------------------------------------|
 C|-8-10-8-10--10-8-10---8-10-8-10-10--10-8-----------------------------------|
G#|---7-7--7-----7-7--7---7--7-7-----------10-9-7-----------------------------|  X4
D#|---------------------------------------------------------------------------|
A#|---------------------------------------------------------------------------|
D#|---------------------------------------------------------------------------|

"Your failing words once moved heaven and earth"
d#|---------------------------------------------------------------------------|
 C|-------------------------------------------------------3-3-5-5-6-6---------|
G#|--------------------------------------------2-2-3-3-5-5--------------------|
D#|-3-3-3-3--8-8-8-8--0-0-0-0--3-3-7-7--3-3-5-5-------------------------------|
A#|-3-3-3-3--8-8-8-8--0-0-0-0--3-3-7-7----------------------------------------|
D#|-3-3-3-3--8-8-8-8--0-0-0-0--3-3-7-7----------------------------------------|

"INVISIBLE PLANS YOU MADE DECONSTRUCT ME"
d#|---------------------------------------------------------------------------|
 C|---------------------------------------------------------------------------|
G#|---5-5-----5-5-----5-5----------------5-5-----5-5-----5-5------------------|
D#|----7-7-----7-7-----7-7--8--5--7-------7-7-----7-7-----7-7--7-5------------|
A#|-0-------0-------0-------8--5--7----0-------0-------0-----------8----------|
D#|-0-------0-------0-------8--5--7----0-------0-------0----------------------|

"THOSE! WORDS! SEEMED SO SINCERE"
d#|---------------------------------------------------------------------------|
 C|------------------------5s6--6--6-6--------------------------5s6--6--6-6---|
G#|------------------------4s5--5--5-5--------------------------4s5--5--5-5---|
D#|-0-0---0-0-0--0---0-0---2s3--3--3-3---0-0---0-0-0--0---0-0---2s3--3--3-3---|
A#|-0-0---0-0-0--0---0-0---0-------------0-0---0-0-0--0---0-0---0-------------|
D#|-0-0---0-0-0--0---0-0---0-------------0-0---0-0-0--0---0-0---0-------------|

"(SHALLOW SEA I..) DROWN"
d#|-------------------------------------------------10--10--10--8-8-8---------|
 C|-10-10-10-10-10-10-10-10-10-10-10-10-6-6-6-6-6-6---------------------------|
G#|---7--7--7--7--7--7--7--7--7--7--7--7-7-7-7-7-7-7--10--10--10-9-9-9--------|
D#|---------------------------------------------------------------------------|
A#|---------------------------------------------------------------------------|
D#|---------------------------------------------------------------------------|

"You want to run and hide to catch your breath"
d#|---------------------------------------------------------------------------|
 C|-10-10-10-10-10-10-11-11-11-10-10-10---------8s10-8------------------------|
G#|---7--7--7--7--7--7--7--7--7--7--7--7--7-9-10------------------------------|
D#|---------------------------------------------------------------------------|
A#|---------------------------------------------------------------------------|
D#|---------------------------------------------------------------------------|

"Why don't you come inside and capture all that's left"
d#|--------12---------12----------17----------17h20---------------------------|
 C|-8-10-13----8-10-13----10-11-13----10-11-13--------------------------------|
G#|---------------------------------------------------------------------------|
D#|---------------------------------------------------------------------------|
A#|---------------------------------------------------------------------------|
D#|---------------------------------------------------------------------------|

"Capture all that's left"
d#|-17--------------17--------------17----------------------------------------|
 C|---15--15-17-15----15--15-17-15----15--15-17-15-17-17-17-17-17-17-17-17----|
G#|-----14--------------14--------------14------------------------------------|
D#|---------------------------------------------------------------------------|
A#|---------------------------------------------------------------------------|
D#|---------------------------------------------------------------------------|

"I don't want to wait for this"
d#|---------------------------------------------------------------------------|
 C|---------6-(x12)-----------------------------------------------------------|
G#|-7-(x24)---------7-(x12)-5-(x6)--------------------------------------------|
D#|--------------------------------8-(x6)-7-(x12)-5-(x24)---------------------|
A#|---------------------------------------------------------------------------|
D#|---------------------------------------------------------------------------|

"IF I SHOULD DIE"
d#|---------------------------------------------------------------------------|
 C|---------------------------------------------------------------------------|
G#|---------------------------------------------------------------------------|  X3
D#|-0--0--0--0--0-0---0--0--10--0-0-------------------------------------------|
A#|-0--0--0--0--0-0---0--0--10--0-0-------------------------------------------|
D#|-0--0--0--0--0-0---0--0--10--0-0-------------------------------------------|

"IF I SHOULD DIE"
d#|---------------------------------------------------------------------------|
 C|---------------------------------------------------------------------------|
G#|---------------------------------------------------------------------------| 
D#|-0--0--0--0--0-0---0--0--10------------------------------------------------|
A#|-0--0--0--0--0-0---0--0--10-(x12)------------------------------------------|
D#|-0--0--0--0--0-0---0--0--10------------------------------------------------|

THE END! (finally)            
Submit corrections


        Cutthroat Collapse  lessons Hard to play? Try these video lessons and learn fast Cutthroat Collapse  lessons
        
↑ Back to top | Tablatures and chords for acoustic guitar and electric guitar, ukulele, drums are parodies/interpretations of the original songs. You may use it for private study, scholarship, research or language learning purposes only