Home » E » Emery »

Emery - Always Depends Tabs

Artists:  A B C D E F G H I J K L M N O P Q R S T U V W X Y Z # 

Always Depends Tabs

(ver. 1) Click to play this song!
Emery
 Rating:
4.2/5 (5 votes)
                
Not to sure about the lead guitar because its very hard to hear during some of the parts.
The Rhythm guitar is correct but i didn't put in the strumming so just listen to the song 
to figure that out. Great song by Emery from there new E.P. "While Broken Hearts Prevail" 
Hope you enjoy it!
DROP C# TUNING


Rhythm guitar

INTRO
|---------------------------------|
|---------------------------------|
|---------------7-----------------|
|-5----7---9----7----5----7----9--|
|-5----7---9----5----5----7----9--|
|-5----7---9---------5----7----9--|


VERSE
|-------------------|
|-------------------|
|-7-----------------|
|-7----5----9----5--|
|-5----5----9----5--|
|------5----9----5--|


CHORUS
|-------------------|
|-------------------|
|-------------------|
|-9----9----5----2--|
|-9----9----5----2--|
|-9----9----5----2--|


CHORUS (part 2)
|---------------------------------------|
|---------------------------------------|
|------------7--------------------------|
|-9---11-----7----4----5-4-2-4-5-4-2-4--|
|-9----7-----5----4----5-4-2-4-5-4-2-4--|
|-9----7----------4----5-4-2-4-5-4-2-4--|


BRIDGE
|-------------------|
|-------------------|
|-------------------|
|-4----7----5----9--|
|-4----7----5----9--|
|-4----7----5----9--|


ENDING
|----------------------|
|----------------------|
|-7---------4----------|
|-7----7----4----4--2--|
|-5----7----2----4--2--|
|------7---------4--2--|



LEAD GUITAR


INTRO
|---------------------------------|
|-------10------------------------|
|-11--9-----12-11h12p11-12p11-----|
|-----------------------------12--|
|---------------------------------|
|---------------------------------|

|-------------------------|
|-------10----------------|
|-11--9-------------------|
|-----------12-11-----11--|
|-------------------9-----|
|-------------------------|


VERSE (all i could hear from the verse)
|-14-12--------|
|-------15-----|
|----------14--|
|--------------|
|--------------|
|--------------|


CHORUS 
|-17-14------17-14--|
|-------------------|
|-------------------|
|-------------------|
|-------------------|
|-------------------|

Thanks!
            
Submit corrections

↑ Back to top | Tablatures and chords for acoustic guitar and electric guitar, ukulele, drums are parodies/interpretations of the original songs. You may use it for private study, scholarship, research or language learning purposes only