Home » E » Emeli Sande »

Emeli Sande - Read All About It Part Iii Tabs

Artists:  A B C D E F G H I J K L M N O P Q R S T U V W X Y Z # 

Read All About It Part Iii Tabs

(ver. 2) Click to play this song!
Emeli Sande


   Bm                      Gmaj7          D5                              A
e|-2--------------------2-----------------------5-----------5--------------------------------0|
B|----------3-----------------------3--------------------3-----3-----3-p0--2-p0--2--3---------|
G|-------4-----4-----4-----------4-----4-----0--------2-----------2--2-p0--2--------------2---|
D|----4-----------------------4--------------------0------------------------------------------|
A|-2--------------2--------x--------------x--------------------------------0-----------0------|
E|-------------------------3--------------3---------------------------------------------------|

   Bm                      Gmaj7          D                               A
e|-2--------------------0-----------------------------------0-----2-------------|
B|----------3-----------------------3-----------3--3-----3--------3-----0--2----|
G|-------4-----4-----4-----------4-----4-----4--------2-----------------0--2----|
D|----4-----------------------4--------------------0-----------0-----0----------|
A|-2--------------2--------x--------------x--------------------------------0----|
E|-------------------------3--------------3-------------------------------------|


            
Submit corrections

↑ Back to top | Tablatures and chords for acoustic guitar and electric guitar, ukulele, drums are parodies/interpretations of the original songs. You may use it for private study, scholarship, research or language learning purposes only