» » »

Elvis Presley - Promised Land Bass

Artists:  A B C D E F G H I J K L M N O P Q R S T U V W X Y Z # 

Promised Land Bass

(ver. 1) Click to play this song!
Elvis Presley
 Rating:
4/5 (4 votes)


 Promised Land lessons Tabs too difficult? Try these video lessons and learn fast
 
                -------------------------------------------------------------------------------

                        PROMISED LAND - Elvis Presley
-------------------------------------------------------------------------------


Tuning: standard EADG

It's more or less just a straight thrash through,  but a great number to get everyone 
at a gig

Intro x 4
(where The King tells the band to "get on it")
G|---------------------------------------------------------------------------|
D|--7--5------7--5-----------------------------------------------------------|
A|-7-7--7-5-7--7--7-5--------------------------------------------------------|
E|---------------------------------------------------------------------------|
Main riff "left my home in Norfolk, VA etc"
G|---------------------------------------------------------------------------|
D|-777-5---777-5---77-5-3--------------------------3-777---------------------|
A|-------7-------7--------555-777-5---777-5---77-5---------------------------|
E|----------------------------------7-------7--------------------------------|
            
Submit corrections



        Promised Land lessons Hard to play? Try these video lessons and learn fast Promised Land lessons
        
↑ Back to top | Tablatures and chords for acoustic guitar and electric guitar, ukulele, drums are parodies/interpretations of the original songs. You may use it for private study, scholarship, research or language learning purposes only