» » »

Elvis Presley - Maries The Name Of His Latest Flame Tabs

Artists:  A B C D E F G H I J K L M N O P Q R S T U V W X Y Z # 

Maries The Name Of His Latest Flame Tabs

(ver. 1) Click to play this song!
Elvis Presley
 Rating:
4/5 (4 votes)

 Maries The Name Of His Latest Flame  lessons Tabs too difficult? Try these video lessons and learn fast
 
                
Gtr I (E A D G B E) - 'Elvis Presley - Acoustic Guitar '


   Intro
    Q=192             1.,2.             3.
    G                    Em              G Em
   4/4
    Gtr I
    Q  E E +E  E E E   E E Q  Q  E E  3x E E Q  Q  E E
||--3--3-3-(3)-3-3-3-|-3-0-0--0--0-0--||-3-0-0--0--0-0-||
||o-0--0-0-(0)-0-0-0-|-0-0-0--0--0-0-o||-0-0-0--0--0-0-||
||--0--0-0-(0)-0-0-0-|-0-0-0--0--0-0--||-0-0-0--0--0-0-||
||--0--0-0-(0)-0-0-0-|-0-2-2--2--2-2--||-0-2-2--2--2-2-||
||o-2--2---------2---|-2---2--2--2---o||-2---2--2--2---||
||--3--3---------3---|-3---0--0--0----||-3---0--0--0---||


 1st & 4th Verses
  $
  G                    Em            G                    Em
  Q  E E +E  E E E   E E Q  Q  E E   Q  E E +E  E E E   E E Q  Q  E E
|-3--3-3-(3)-3-3-3-|-3-0-0--0--0-0-|-3--3-3-(3)-3-3-3-|-3-0-0--0--0-0-|
|-0--0-0-(0)-0-0-0-|-0-0-0--0--0-0-|-0--0-0-(0)-0-0-0-|-0-0-0--0--0-0-|
|-0--0-0-(0)-0-0-0-|-0-0-0--0--0-0-|-0--0-0-(0)-0-0-0-|-0-0-0--0--0-0-|
|-0--0-0-(0)-0-0-0-|-0-2-2--2--2-2-|-0--0-0-(0)-0-0-0-|-0-2-2--2--2-2-|
|-2--2---------2---|-2---2--2--2---|-2--2---------2---|-2---2--2--2---|
|-3--3---------3---|-3---0--0--0---|-3--3---------3---|-3---0--0--0---|


  G                    Em            G                    Em
  Q  E E +E  E E E   E E Q  Q  E E   Q  E E +E  E E E   E E Q  Q  E E
|-3--3-3-(3)-3-3-3-|-3-0-0--0--0-0-|-3--3-3-(3)-3-3-3-|-3-0-0--0--0-0-|
|-0--0-0-(0)-0-0-0-|-0-0-0--0--0-0-|-0--0-0-(0)-0-0-0-|-0-0-0--0--0-0-|
|-0--0-0-(0)-0-0-0-|-0-0-0--0--0-0-|-0--0-0-(0)-0-0-0-|-0-0-0--0--0-0-|
|-0--0-0-(0)-0-0-0-|-0-2-2--2--2-2-|-0--0-0-(0)-0-0-0-|-0-2-2--2--2-2-|
|-2--2---------2---|-2---2--2--2---|-2--2---------2---|-2---2--2--2---|
|-3--3---------3---|-3---0--0--0---|-3--3---------3---|-3---0--0--0---|


                                                   To Coda
                      C                  D7                  G
  E E E E +E  E E E   Q  E E +E  E E E   Q  E E +E  E E E    Q  E E +E  E E E
|-0-0-0-0-(0)-0-0-0-|-0--0-0-(0)-0-0-0-|-2--2-2-(2)-2-2-2--|-3--3-3-(3)-3-3-3-|
|-0-0-0-0-(0)-0-0-0-|-1--1-1-(1)-1-1-1-|-1--1-1-(1)-1-1-1--|-0--0-0-(0)-0-0-0-|
|-0-0-0-0-(0)-0-0-0-|-0--0-0-(0)-0-0-0-|-2--2-2-(2)-2-2-2--|-0--0-0-(0)-0-0-0-|
|-2-2-2-2-(2)-2-2-2-|-2--2-2-(2)-2-2-2-|-0--0-0-(0)-0-0-0--|-0--0-0-(0)-0-0-0-|
|-2---2---------2---|-3--3-3-(3)-3-3-3-|-------------------|-2--2---------2---|
|-0---0---------0---|------------------|-------------------|-3--3---------3---|


                                                      2nd & 3rd Verses
    Em            G                    Em              G
  E E Q  Q  E E   Q  E E +E  E E E   E E Q  Q  E E     Q  E E +E  E E E
|-3-0-0--0--0-0-|-3--3-3-(3)-3-3-3-|-3-0-0--0--0-0-||--3--3-3-(3)-3-3-3-|
|-0-0-0--0--0-0-|-0--0-0-(0)-0-0-0-|-0-0-0--0--0-0-||o-0--0-0-(0)-0-0-0-|
|-0-0-0--0--0-0-|-0--0-0-(0)-0-0-0-|-0-0-0--0--0-0-||--0--0-0-(0)-0-0-0-|
|-0-2-2--2--2-2-|-0--0-0-(0)-0-0-0-|-0-2-2--2--2-2-||--0--0-0-(0)-0-0-0-|
|-2---2--2--2---|-2--2---------2---|-2---2--2--2---||o-2--2---------2---|
|-3---0--0--0---|-3--3---------3---|-3---0--0--0---||--3--3---------3---|


    Em            G                    Em            G
  E E Q  Q  E E   Q  E E +E  E E E   E E Q  Q  E E   Q  E E +E  E E E
|-3-0-0--0--0-0-|-3--3-3-(3)-3-3-3-|-3-0-0--0--0-0-|-3--3-3-(3)-3-3-3-|
|-0-0-0--0--0-0-|-0--0-0-(0)-0-0-0-|-0-0-0--0--0-0-|-0--0-0-(0)-0-0-0-|
|-0-0-0--0--0-0-|-0--0-0-(0)-0-0-0-|-0-0-0--0--0-0-|-0--0-0-(0)-0-0-0-|
|-0-2-2--2--2-2-|-0--0-0-(0)-0-0-0-|-0-2-2--2--2-2-|-0--0-0-(0)-0-0-0-|
|-2---2--2--2---|-2--2---------2---|-2---2--2--2---|-2--2---------2---|
|-3---0--0--0---|-3--3---------3---|-3---0--0--0---|-3--3---------3---|


    Em            G                    Em
  E E Q  Q  E E   Q  E E +E  E E E   E E Q  Q  E E   E E E E +E  E E E
|-3-0-0--0--0-0-|-3--3-3-(3)-3-3-3-|-3-0-0--0--0-0-|-0-0-0-0-(0)-0-0-0-|
|-0-0-0--0--0-0-|-0--0-0-(0)-0-0-0-|-0-0-0--0--0-0-|-0-0-0-0-(0)-0-0-0-|
|-0-0-0--0--0-0-|-0--0-0-(0)-0-0-0-|-0-0-0--0--0-0-|-0-0-0-0-(0)-0-0-0-|
|-0-2-2--2--2-2-|-0--0-0-(0)-0-0-0-|-0-2-2--2--2-2-|-2-2-2-2-(2)-2-2-2-|
|-2---2--2--2---|-2--2---------2---|-2---2--2--2---|-2---2---------2---|
|-3---0--0--0---|-3--3---------3---|-3---0--0--0---|-0---0---------0---|


  C                  D7                 G                    Em
  Q  E E +E  E E E   Q  E E +E  E E E   Q  E E +E  E E E   E E Q  Q  E E
|-0--0-0-(0)-0-0-0-|-2--2-2-(2)-2-2-2-|-3--3-3-(3)-3-3-3-|-3-0-0--0--0-0-|
|-1--1-1-(1)-1-1-1-|-1--1-1-(1)-1-1-1-|-0--0-0-(0)-0-0-0-|-0-0-0--0--0-0-|
|-0--0-0-(0)-0-0-0-|-2--2-2-(2)-2-2-2-|-0--0-0-(0)-0-0-0-|-0-0-0--0--0-0-|
|-2--2-2-(2)-2-2-2-|-0--0-0-(0)-0-0-0-|-0--0-0-(0)-0-0-0-|-0-2-2--2--2-2-|
|-3--3-3-(3)-3-3-3-|------------------|-2--2---------2---|-2---2--2--2---|
|------------------|------------------|-3--3---------3---|-3---0--0--0---|


                                     Bridge
  G                    Em             D                  C
  Q  E E +E  E E E   E E Q  Q  E E    Q  E E +E  E E E   Q  E E +E  E E E
|-3--3-3-(3)-3-3-3-|-3-0-0--0--0-0-||-2--2-2-(2)-2-2-2-|-0--0-0-(0)-0-0-0-|
|-0--0-0-(0)-0-0-0-|-0-0-0--0--0-0-||-3--3-3-(3)-3-3-3-|-1--1-1-(1)-1-1-1-|
|-0--0-0-(0)-0-0-0-|-0-0-0--0--0-0-||-2--2-2-(2)-2-2-2-|-0--0-0-(0)-0-0-0-|
|-0--0-0-(0)-0-0-0-|-0-2-2--2--2-2-||-0--0-0-(0)-0-0-0-|-2--2-2-(2)-2-2-2-|
|-2--2---------2---|-2---2--2--2---||------------------|-3--3-3-(3)-3-3-3-|
|-3--3---------3---|-3---0--0--0---||------------------|------------------|


  D                  C                  D                  C
  Q  E E +E  E E E   Q  E E +E  E E E   Q  E E +E  E E E   Q  E E +E  E E E
|-2--2-2-(2)-2-2-2-|-0--0-0-(0)-0-0-0-|-2--2-2-(2)-2-2-2-|-0--0-0-(0)-0-0-0-|
|-3--3-3-(3)-3-3-3-|-1--1-1-(1)-1-1-1-|-3--3-3-(3)-3-3-3-|-1--1-1-(1)-1-1-1-|
|-2--2-2-(2)-2-2-2-|-0--0-0-(0)-0-0-0-|-2--2-2-(2)-2-2-2-|-0--0-0-(0)-0-0-0-|
|-0--0-0-(0)-0-0-0-|-2--2-2-(2)-2-2-2-|-0--0-0-(0)-0-0-0-|-2--2-2-(2)-2-2-2-|
|------------------|-3--3-3-(3)-3-3-3-|------------------|-3--3-3-(3)-3-3-3-|
|------------------|------------------|------------------|------------------|


  D                  C                  D                  C
  Q  E E +E  E E E   Q  E E +E  E E E   Q  E E +E  E E E   Q  E E +E  E E E
|-2--2-2-(2)-2-2-2-|-0--0-0-(0)-0-0-0-|-2--2-2-(2)-2-2-2-|-0--0-0-(0)-0-0-0-|
|-3--3-3-(3)-3-3-3-|-1--1-1-(1)-1-1-1-|-3--3-3-(3)-3-3-3-|-1--1-1-(1)-1-1-1-|
|-2--2-2-(2)-2-2-2-|-0--0-0-(0)-0-0-0-|-2--2-2-(2)-2-2-2-|-0--0-0-(0)-0-0-0-|
|-0--0-0-(0)-0-0-0-|-2--2-2-(2)-2-2-2-|-0--0-0-(0)-0-0-0-|-2--2-2-(2)-2-2-2-|
|------------------|-3--3-3-(3)-3-3-3-|------------------|-3--3-3-(3)-3-3-3-|
|------------------|------------------|------------------|------------------|


  D                  C                  D                  C
  Q  E E +E  E E E   Q  E E +E  E E E   Q  E E +E  E E E   Q  E E +E  E E E
|-2--2-2-(2)-2-2-2-|-0--0-0-(0)-0-0-0-|-2--2-2-(2)-2-2-2-|-0--0-0-(0)-0-0-0-|
|-3--3-3-(3)-3-3-3-|-1--1-1-(1)-1-1-1-|-3--3-3-(3)-3-3-3-|-1--1-1-(1)-1-1-1-|
|-2--2-2-(2)-2-2-2-|-0--0-0-(0)-0-0-0-|-2--2-2-(2)-2-2-2-|-0--0-0-(0)-0-0-0-|
|-0--0-0-(0)-0-0-0-|-2--2-2-(2)-2-2-2-|-0--0-0-(0)-0-0-0-|-2--2-2-(2)-2-2-2-|
|------------------|-3--3-3-(3)-3-3-3-|------------------|-3--3-3-(3)-3-3-3-|
|------------------|------------------|------------------|------------------|


                                                       1.
  G                    C             G                    Em
  Q  E E +E  E E E   E E Q  Q  E E   Q  E E +E  E E E   E E Q  Q  E E
|-3--3-3-(3)-3-3-3-|-3-0-0--0--0-0-|-3--3-3-(3)-3-3-3-|-3-0-0--0--0-0--||
|-0--0-0-(0)-0-0-0-|-0-0-0--0--0-0-|-0--0-0-(0)-0-0-0-|-0-0-0--0--0-0-o||
|-0--0-0-(0)-0-0-0-|-0-0-0--0--0-0-|-0--0-0-(0)-0-0-0-|-0-0-0--0--0-0--||
|-0--0-0-(0)-0-0-0-|-0-2-2--2--2-2-|-0--0-0-(0)-0-0-0-|-0-2-2--2--2-2--||
|-2--2---------2---|-2---2--2--2---|-2--2---------2---|-2---2--2--2---o||
|-3--3---------3---|-3---0--0--0---|-3--3---------3---|-3---0--0--0----||


                    Outro
  2.
    D.S. al Coda &
  G Em               G                    Em
  E E Q  Q  E E      Q  E E +E  E E E   E E Q  Q  E E
|-3-0-0--0--0-0--||--3--3-3-(3)-3-3-3-|-3-0-0--0--0-0-|
|-0-0-0--0--0-0--||o-0--0-0-(0)-0-0-0-|-0-0-0--0--0-0-|
|-0-0-0--0--0-0--||--0--0-0-(0)-0-0-0-|-0-0-0--0--0-0-|
|-0-2-2--2--2-2--||--0--0-0-(0)-0-0-0-|-0-2-2--2--2-2-|
|-2---2--2--2----||o-2--2---------2---|-2---2--2--2---|
|-3---0--0--0----||--3--3---------3---|-3---0--0--0---|


  G                    Em
  Q  E E +E  E E E   E E Q  Q  E E
|-3--3-3-(3)-3-3-3-|-3-0-0--0--0-0----||
|-0--0-0-(0)-0-0-0-|-0-0-0--0--0-0---o||
|-0--0-0-(0)-0-0-0-|-0-0-0--0--0-0----||
|-0--0-0-(0)-0-0-0-|-0-2-2--2--2-2----||
|-2--2---------2---|-2---2--2--2-----o||
|-3--3---------3---|-3---0--0--0------||

            
Submit corrections


        Maries The Name Of His Latest Flame  lessons Hard to play? Try these video lessons and learn fast Maries The Name Of His Latest Flame  lessons
        
↑ Back to top | Tablatures and chords for acoustic guitar and electric guitar, ukulele, drums are parodies/interpretations of the original songs. You may use it for private study, scholarship, research or language learning purposes only