» » »

Elvis Presley - Jail House Rock Riffs Tabs

Artists:  A B C D E F G H I J K L M N O P Q R S T U V W X Y Z # 

Jail House Rock Riffs Tabs

(ver. 1) Click to play this song!
Elvis Presley
 Rating:
4/5 (4 votes)

 Jail House Rock  Riffs lessons Tabs too difficult? Try these video lessons and learn fast
 
                            JAILHOUSE ROCK   ELVIS PRESLEY


               DAYTONA BEACH FLORIDA USA

                 SCOTTY MOORE  4/30/57 


KEY E####


MAIN RIFF

  D# E//
----------------------
--8/-9----------------
--8/-9----------------
--8/-9----------------
--6/-7----------------
----------------------
      // WARDEN THREW 

  RIFF 2 BOOGIE LINES

 A7                                  2X
-------------------------------------
-------------------------------------  
-------------------------------------
------------2---2----4----2----------
-0--0--4---4-------------------------
-------------------------------------    
LETS ROCK!  


E                                     2X
---------------------------------------  
---------------------------------------
---------------------------------------
---------------------------------------
--------------2--2---4---2-------------
-0--0---4---4--------------------------

B7                               1X
------------------------------------
------------------------------------
------------------------------------
-------------------4----4---6---4---
--2---2---6----6--------------------
------------------------------------
  

BOOGIE LINES IN RHY STRUCTURE CHORUS

A7//// ////  ///// ////

E
//// ////

B7
//// ////

A7
//// //// 

E
////

RIFF Z
//// ///

ENDING FOR VERSE 1, 2, 4, RIFF Z
-------------------------
-------------------------
-------------------------
-------------------------
-------------2-2-H-4-----
-0--0--4--4--------------

                     
RIFF K FOR ENDING ON VERSE 3 THEN SOLO

------------------------
------------------------
------------------------
------------------------
------------------------
--0---4----4---4---4----

ROCK COME ON COME ON ROCK 


SOLO

/   /   /   /   /   /     /   /  /   /    /
12-12--12-|-12--12--12-|--12-12-12---12--12--
8--8---8--|-8---8---8--|--8--8--8----8---8---
----------|------------|---------------------
----------|------------|---------------------
----------|------------|---------------------
----------|------------|----------------------

  ((((UNISON BENDS))))
-----------------------------------------
-9----9---9----9-----9----9---9---9------
-12B--12B-12B--12B---12B--12B-12B-12B----
-----------------------------------------
-----------------------------------------
-----------------------------------------


-------------------------------------------------
-------------------------------------------------
-------------------------------------------------
-9---9--9---9--9----6/---7--7--7--7--7--7--------
-9---9--9---9--9----6/---7--7--7--7--7--7--------
-7---7--7---7--7----4/---5--5--5--5--5--5--------

----------------------------------------------
---------2--2------------2-2------------------
-1--1----2--2-----1--1---2-2---1--1--1--1--8--
-2--2----2--2-----2--2---2-2---2--2--2--2--8--
-2--2-------------2--2---------2--2--2--2--6--
-0--0-------------0--0---------0--0--0--0-----


ENDING OF SONG             6X
--------------------------------------------
--------------------------------------------
--------------------------------------------
--------------------------------------------
------------2--2---4--2---------------------
-0-0--4--4----------------------------------
DANCE TO THE  JAIL HOUSE ROCK



NOTES  $$$$$$$$$$$$$$$$

LISTEN TO SONG AND PUT THE PUZZLE TOGETHER
EASY TUNE
THIS IS HOW I LEARNED IT













   
            
Submit corrections


        Jail House Rock  Riffs lessons Hard to play? Try these video lessons and learn fast Jail House Rock  Riffs lessons
        
↑ Back to top | Tablatures and chords for acoustic guitar and electric guitar, ukulele, drums are parodies/interpretations of the original songs. You may use it for private study, scholarship, research or language learning purposes only