» » »

Elvis Presley - I Want You I Need You I Love You Tabs

Artists:  A B C D E F G H I J K L M N O P Q R S T U V W X Y Z # 

I Want You I Need You I Love You Tabs

(ver. 1) Click to play this song!
Elvis Presley
 Rating:
4/5 (4 votes)

 I Want You I Need You I Love You lessons Tabs too difficult? Try these video lessons and learn fast
 
                Gtr I (E A D G B E) - 'Scotty Moore - Electric Guitar'
Gtr II (E A D G B E) - 'Marvin Hughes - Piano'


 Intro
  Q.=78
  Dmb5        G6            C     Ab7   G7
 12/8
  Gtr I (El. Gtr.)
  E E E E E E E E E E E E   E E E E E E E Q  Q.
|-1-1-1-1-1-1-3-3-3-3-3-3-|-0-0-0-4-4-4-3---------|
|-3-3-3-3-3-3-5-5-5-5-5-5-|-1-1-1-4-4-4-3---------|
|-1-1-1-1-1-1-4-4-4-4-4-4-|-0-0-0-5-5-5-4---------|
|-0-----------5-5-5-5-5-5-|-2-2-2-4-4-4-3---------|
|-------------------------|-3-----6-6-6-5---------|
|-------------------------|-------4-4-4-3---------|


   1st & 2nd Verses
    C           Am
    E E E E E E E E E E E E
||--------------------------|
||o-------1-----------1-----|
||------0---0-------2---2---|
||----2-------2---2-------2-|
||o-3-----------0-----------|
||--------------------------|


  Dm          G             C           C7
  E E E E E E E E E E E E   E E E E E E E E E E E E
|-------1-----------3-----|-------------------------|
|---3-----3-------3---3---|-------1-----------1-----|
|-----2-----2---4-------4-|---0-----0-----0-----3---|
|-0-----------5-----------|-----2-----2-----2-----2-|
|-------------------------|-3-----------3-----------|
|-------------------------|-------------------------|


  F5                    Fm6                       A7
  Q  E Q  E Q  E Q  E   E E E E E E E E E E E E   E E E E E E E E E E E E
|---------------------|-1-1-1-1-1-1-1-1-1-1-1-1-|-0-0-0-3-3-3-3-3-3-3-3-3--|
|---------------------|-3-3-3-3-3-3-3-3-3-3-3-3-|-2-2-2-2-2-2-2-2-2-2-2-2--|
|---------------------|-1-1-1-1-1-1-1-1-1-1-1-1-|-0-0-0-0-0-0-0-0-0-0-0-0--|
|---------------------|-3-3-3-3-3-3-3-3-3-3-3-3-|-2-2-2-2-2-2-2-2-2-2-2-2--|
|-3--3-5--3-3--3-5--3-|-------------------------|-0-0-0-0-0-0-0-0-0-0-0-0--|
|-1----1----1----1----|-------------------------|--------------------------|


  1.                                               2.
  D7                        G7                      D7         G7
  E E E E E E E E E E E E   Q  E Q  E Q.   Q.       E E E Q  E Q  E Q  E
|-------------2-2-2-2-2-2-|----------------------||-----------------------|
|-1-1-1-1-1-1-1-1-1-1-1-1-|-3--3-3--3-3---------o||------------3--3-3--3--|
|-2-2-2-2-2-2-2-2-2-2-2-2-|-0--0-0--0-0----------||-5-5-5-5--5-4--4-4--4--|
|-0-0-0-0-0-0-0-0-0-0-0-0-|-3--3-3--3-3----------||-4-4-4-4--4-3--3-3--3--|
|-------------------------|-2--2-2--2-2---------o||-5-5-5-5--5-5--5-5--5--|
|-------------------------|-3--3-3--3-3----------||------------3--3-3--3--|


                        Bridge
  C/G                    Gm                C
  Q  E Q  E Q  E Q  E     E  E  E  E  E  E  E  E  E  E  E  E
|---------------------||-10-10-10-10-10-10-12-12-12-12-12-12-|
|---------------------||-11-11-11-11-11-11-13-13-13-13-13-13-|
|------0---------0----||-12-12-12-12-12-12-12-12-12-12-12-12-|
|----2----2------2----||-------------------------------------|
|-3---------3----3----||-------------------------------------|
|--------------3----3-||-------------------------------------|
|
|                        Gtr II (Piano arr. for Gtr.)
| W                       Q     E  Q     E  Q     E  Q     E
|---------------------||--3-----3--3-----3--0-----0--0-----0-|
|---------------------||--3-----3--3-----3--1-----1--1-----1-|
|---------------------||--3-----3--3-----3--0-----0--0-----0-|
|---------------------||--5-----5--5-----5--2-----2--2-----2-|
|---------------------||--5-----5--5-----5--3-----3--3-----3-|
|---------------------||--3-----3--3-----3-------------------|


  F5
   E  E  E  E  E  E  E  E  E  E  E  E
|-13-13-13-13-13-13-13-13-13-13-13-13--|
|-13-13-13-13-13-13-13-13-13-13-13-13--|
|-14-14-14-14-14-14-14-14-14-14-14-14--|
|--------------------------------------|
|--------------------------------------|
|--------------------------------------|
|
|  Q     E  Q     E  Q     E  Q     E
|--------------------------------------|
|--------------------------------------|
|--------------------------------------|
|--------------------------------------|
|--3-----5--3-----5--3-----5--3-----5--|
|--1-----1--1-----1--1-----1--1-----1--|


  Gm                C
   E  E  E  E  E  E  E  E  E  E  E  E
|-10-10-10-10-10-10-12-12-12-12-12-12-|
|-11-11-11-11-11-11-13-13-13-13-13-13-|
|-12-12-12-12-12-12-12-12-12-12-12-12-|
|-------------------------------------|
|-------------------------------------|
|-------------------------------------|
|
|  Q     E  Q     E  Q     E  Q     E
|--3-----3--3-----3--0-----0--0-----0-|
|--3-----3--3-----3--1-----1--1-----1-|
|--3-----3--3-----3--0-----0--0-----0-|
|--5-----5--5-----5--2-----2--2-----2-|
|--5-----5--5-----5--3-----3--3-----3-|
|--3-----3--3-----3-------------------|


  F5                                    Am          D7
   E  E  E  E  E  E  E  E  E  E  E  E   E E E E E E E E E E E E
|-13-13-13-13-13-13-13-13-13-13-13-13-|-5-5-5-5-5-5-8-8-8-8-8-8--|
|-13-13-13-13-13-13-13-13-13-13-13-13-|-5-5-5-5-5-5-7-7-7-7-7-7--|
|-14-14-14-14-14-14-14-14-14-14-14-14-|-5-5-5-5-5-5-7-7-7-7-7-7--|
|-------------------------------------|-7-7-7-7-7-7-7-7-7-7-7-7--|
|-------------------------------------|--------------------------|
|-------------------------------------|--------------------------|
|
|  Q     E  Q     E  Q     E  Q     E   Q   E Q   E Q   E Q   E
|-------------------------------------|-0---0-0---0-2---2-2---2--|
|-------------------------------------|-1---1-1---1-1---1-1---1--|
|-------------------------------------|-2---2-2---2-2---2-2---2--|
|-------------------------------------|-2---2-2---2-0---0-0---0--|
|--3-----5--3-----5--3-----5--3-----5-|-0---0-0---0--------------|
|--1-----1--1-----1--1-----1--1-----1-|--------------------------|


  G5                        Am
  E E E E E E E E E E E E   E E E E E E E E E E E E
|-7-7-7-7-7-7-7-7-7-7-7-7-|-5-5-5-5-5-5-8-8-8-8-8-8-|
|-8-8-8-8-8-8-8-8-8-8-8-8-|-5-5-5-5-5-5-7-7-7-7-7-7-|
|-7-7-7-7-7-7-7-7-7-7-7-7-|-5-5-5-5-5-5-7-7-7-7-7-7-|
|-9-9-9-9-9-9-9-9-9-9-9-9-|-7-7-7-7-7-7-7-7-7-7-7-7-|
|-7-7-7-7-7-7-7-7-7-7-7-7-|-------------------------|
|-------------------------|-------------------------|
|
| Q   E Q   E Q   E Q   E   Q   E Q   E Q   E Q   E
|-------------------------|-0---0-0---0-2---2-2---2-|
|-------------------------|-1---1-1---1-1---1-1---1-|
|-------------------------|-2---2-2---2-2---2-2---2-|
|-------------------------|-2---2-2---2-0---0-0---0-|
|-5---7-5---7-5---7-5---7-|-0---0-0---0-------------|
|-3---3-3---3-3---3-3---3-|-------------------------|


  G9          G9+5
  E E E E E E E E E E E E
|--------------------------||
|-3-3-3-------3-3-3-3-3-3--||
|-2-2-2-2-2-2-2-2-2-2-2-2--||
|-3-3-3-3-3-3-3-3-3-3-3-3--||
|-2-2-2-2-2-2-2-2-2-2-2-2--||
|-3-3-3-------3-3-3-3-3-3--||
|
| E E E E E E E E E E E E
|--------------------------||
|-3-3-3-3-3-3-4-4-4-4-4-4--||
|-2-2-2-2-2-2-2-2-2-2-2-2--||
|-3-3-3-3-3-3-3-3-3-3-3-3--||
|-2-2-2-2-2-2-2-2-2-2-2-2--||
|-3-3-3-3-3-3-3-3-3-3-3-3--||


 3rd & 4th Verses
  $
  C           Am            Dm          G             C           C7
  E E E E E E E E E E E E   E E E E E E E E E E E E   E E E E E E E E E E E E
|-------------------------|-------1-----------3-----|--------------------------|
|-------1-----------1-----|---3-----3-------3---3---|-------1-----------1------|
|-----0---0-------2---2---|-----2-----2---4-------4-|---0-----0-----0-----3----|
|---2-------2---2-------2-|-0-----------5-----------|-----2-----2-----2-----2--|
|-3-----------0-----------|-------------------------|-3-----------3------------|
|-------------------------|-------------------------|--------------------------|


  F5                    Fm6                       A7
  Q  E Q  E Q  E Q  E   E E E E E E E E E E E E   E E E E E E E E E E E E
|---------------------|-1-1-1-1-1-1-1-1-1-1-1-1-|-0-0-0-3-3-3-3-3-3-3-3-3--|
|---------------------|-3-3-3-3-3-3-3-3-3-3-3-3-|-2-2-2-2-2-2-2-2-2-2-2-2--|
|---------------------|-1-1-1-1-1-1-1-1-1-1-1-1-|-0-0-0-0-0-0-0-0-0-0-0-0--|
|---------------------|-3-3-3-3-3-3-3-3-3-3-3-3-|-2-2-2-2-2-2-2-2-2-2-2-2--|
|-3--3-5--3-3--3-5--3-|-------------------------|-0-0-0-0-0-0-0-0-0-0-0-0--|
|-1----1----1----1----|-------------------------|--------------------------|


                                                Bridge
                To Coda
  D7        G9            C         C/G          Gm        C9
                                                 Gtrs I, II
  Q  E Q  E E E E Q  E    Q  E Q  E Q  E Q  E    Q  E Q  E Q  E Q  E
|-----------------0-----|-----------0---------||---------------------|
|-------------0---------|-----------1---------||--------------3------|
|-5--5-5--5-----2----2--|------0----0----0----||----3-3-------3-3----|
|-4--4-4--4-3--------3--|----2----2-2--2-2--2-||----5-5-------2-2--2-|
|-5--5-5--5-2--------2--|-3---------3--3-3--3-||----5-5--1-3-------3-|
|-----------3--------3--|-----------3--3----3-||-3-------------------|


  F5                    Gm        C9          F5
  Q  E Q  E Q  E Q  E   Q  E Q  E Q  E Q  E   Q  E Q  E Q  E Q  E
|---------------------|---------------------|----------------------|
|---------------------|--------------3------|----------------------|
|---------2---------2-|----3-3-------3-3----|---------2---------2--|
|---------0---------0-|----5-5-------2-2--2-|---------0---------0--|
|-3--5-3----3--5-3----|----5-5--1-3-------3-|-3--5-3----3--5-3-----|
|-1--1-1----1--1-1----|-3-------------------|-1--1-1----1--1-1-----|


  Am                    G                     Am        D7
  Q  E Q  E Q  E Q  E   Q  E Q  E Q  E Q  E   Q  E Q  E Q  E Q  E
|---------------------|---------------------|----------------------|
|---------------------|----3----3----3----3-|----------------------|
|----5----5----5----5-|----4----4----4----0-|----5----5----5----5--|
|----7----7-7--7-7--7-|----5----5---------0-|----7----7-4--4-4--4--|
|-7--7-7--7-5--5-5--5-|-5--5-5--5-7----2----|-7--7-7--7-5----5-----|
|-5----5----5----5----|-3----3----3----3----|-5----5----5----------|


                            Outro
                             H.=H
             D.S. al Coda &
  G          G7+5                 C  G/C   C6  G/C  F/C  C
                             Gtr I
  Q  E E E E E E E E E E     Q.   E. S +E  E E  E E Q     Q.   Q.   H.
|-------------------------||------8--7-(7)-5---^3---1--|-^0---------------*|
|------------4-4-4--------||------8--8-(8)-5---^3---1--|-^1---------------*|
|------------4-4-4-4-4-4--||------9--7-(7)-5---^4---2--|-^0---------------*|
|----5-------3-----3---3--||---------------------------|-^2---------------*|
|-5--5-7-5-7--------------||---------------------------|-^3---------------*|
|-3----3---3--------------||---------------------------|------------------*|


            
Submit corrections


        I Want You I Need You I Love You lessons Hard to play? Try these video lessons and learn fast I Want You I Need You I Love You lessons
        
↑ Back to top | Tablatures and chords for acoustic guitar and electric guitar, ukulele, drums are parodies/interpretations of the original songs. You may use it for private study, scholarship, research or language learning purposes only