» » »

Elvis Presley - I Want To Be Free Bass

Artists:  A B C D E F G H I J K L M N O P Q R S T U V W X Y Z # 

I Want To Be Free Bass

(ver. 1) Click to play this song!
Elvis Presley
 Rating:
4/5 (4 votes)

 I Want To Be Free lessons Tabs too difficult? Try these video lessons and learn fast
 
                -------------------------------------------------------------------------------
                             I Want To Be Free - Elvis Presley 
-------------------------------------------------------------------------------
I translated this from the guitar line, so if their are any corrections for a 
proper bass line please email. I also changed certain bits to how the song sounded 
(Jailhouse Rock movie version) :)

Tuning: Standard 

Intro:
G|---------------------------------------------------------------------------|
D|------777------------------------------------------------------------------|
A|--555----5-5-5-6-7---------------------------------------------------------|
E|---------------------------------------------------------------------------|

Verse 1:

G|--------------|-----------------|----------4-4------|----------------------|
D|--------------|-----------------|--------------5-5--|----------0-0000------|
A|-5-5-----5-5--|--5-5-----5-5-5--|--5-5--------------|--5-5-----------------|
E|-----5-5------|------5-5--------|------5-5----------|------5-5-------------|

Chorus:
G|------------------------------------44-------------------------------------|
D|--------7-7-7---------7-7-7------------8-7-5-----------7-7-----------------|
A|-5-5-5---------5-5-5-------------55---------5---5-5-5-------5-5555---------|
E|--------------------5------------------------------------------------------|

Note that this is the tab for the Jailhouse Rock version. Listen to it here: 
===============================================================================
            
Submit corrections


        I Want To Be Free lessons Hard to play? Try these video lessons and learn fast I Want To Be Free lessons
        
↑ Back to top | Tablatures and chords for acoustic guitar and electric guitar, ukulele, drums are parodies/interpretations of the original songs. You may use it for private study, scholarship, research or language learning purposes only