» » »

Elvis Presley - I Got Stung Tabs

Artists:  A B C D E F G H I J K L M N O P Q R S T U V W X Y Z # 

I Got Stung Tabs

(ver. 1) Click to play this song!
Elvis Presley
 Rating:
4/5 (4 votes)

 I Got Stung lessons Tabs too difficult? Try these video lessons and learn fast
 
                Gtr I (E A D G B E) - 'Hank Garland - Electric Guitar'


 Intro 1
  Q=180
  N.C.
 4/4
  Gtr I
  Wx4
|--------||
|--------||
|--------||
|--------||
|--------||
|--------||


   Intro 2 & Interlude
    N.C.
    PM----------------------------------------------------------|
    Q  Q  E E E E   Q  Q  E E E E   Q  Q  E E E E   Q  Q  E E E E
||----------------|---------------|---------------|---------------||
||o---------------|---------------|---------------|---------------||
||------------5---|-----------5---|-----------5---|-----------5---||
||-----5--8-8---8-|----5--8-8---8-|----5--8-8---8-|----5--8-8---8-||
||o-6-------------|-6-------------|-6-------------|-6-------------||
||----------------|---------------|---------------|---------------||


 1st - 4th Verses
  $
  $$
  N.C.
  PM------------------------------------------------------------|
  Q  Q  E E E E   Q  Q  E E E E   Q  Q  E E E E   E E E E E E E E
|---------------|---------------|---------------|------------------|
|---------------|---------------|---------------|------------------|
|-----------5---|-----------5---|-----------5---|------------------|
|----5--8-8---8-|----5--8-8---8-|----5--8-8---8-|------------------|
|-6-------------|-6-------------|-6-------------|-6-6-4-4-3-3------|
|---------------|---------------|---------------|-------------6-6--|


  PM----------------------------------------------------------|
  Q  Q  E E E E   Q  Q  E E E E   Q  Q  E E E E   Q  Q  E E E E
|---------------|---------------|---------------|----------------|
|---------------|---------------|---------------|----------------|
|---------------|---------------|-----------5---|-----------5----|
|-----------3---|-----------3---|----5--8-8---8-|----5--8-8---8--|
|----3--6-6---6-|----3--6-6---6-|-6-------------|-6--------------|
|-4-------------|-4-------------|---------------|----------------|


                                              1.
                                     To Coda
                                     To Coda
                              PM---------------------------|
  q  q  q  q    q  q  Q  Q    Q  Q  E E E E    Q  Q  E E E E
|-------------|-------------|----------------|----------------||
|-------------|-------------|----------------|---------------o||
|-------------|-------------|-----------5----|-----------5----||
|-------------|----------5--|----5--8-8---8--|----5--8-8---8--||
|-------------|-------------|-6--------------|-6-------------o||
|-6--------6--|-4-----------|----------------|----------------||


                    Bridge
  2.
                     N.C.
  PM-------------------------------------------------------------|
  E E E E E E E E    Q  Q  E E E E   Q  Q  E E E E   Q  Q  E E E E
|-----------------||---------------|---------------|----------------|
|-----------------||---------------|---------------|----------------|
|-----------------||---------------|-----------5---|----------------|
|-----------------||-----------3---|----5--8-8---8-|-----------5----|
|-6-6-4-4-3-3-----||----3--6-6---6-|-6-------------|----5--8-8---8--|
|-------------6-6-||-4-------------|---------------|-6--------------|


                                                   D.S. al Coda
  PM---------------------------------------|
  Q  Q  E E E E   Q  Q  E E E E   Q  Q  Q  Q    q  Q  H      W
|---------------|---------------|-------------|------------|-------||
|---------------|---------------|-------------|------------|-------||
|---------------|---------------|-------------|------------|-------||
|---------------|-----------3---|-------------|------------|-------||
|----5--8-8-5-8-|----3--6-6---6-|----3--------|------------|-------||
|-6-------------|-4-------------|-4-----4--5--|-6----------|-------||


                  Interlude
  &
                   N.C.
  PM-----------------------------------------------------------|
  Q  Q  E E E E    Q  Q  E E E E   Q  Q  E E E E   Q  Q  E E E E
|---------------||---------------|---------------|----------------|
|---------------||---------------|---------------|----------------|
|-----------5---||-----------5---|-----------5---|-----------5----|
|----5--8-8---8-||----5--8-8---8-|----5--8-8---8-|----5--8-8---8--|
|-6-------------||-6-------------|-6-------------|-6--------------|
|---------------||---------------|---------------|----------------|


                    Bridge
                     N.C.
  PM-------------------------------------------------------------|
  E E E E E E E E    Q  Q  E E E E   Q  Q  E E E E   Q  Q  E E E E
|-----------------||---------------|---------------|----------------|
|-----------------||---------------|---------------|----------------|
|-----------------||---------------|-----------5---|----------------|
|-----------------||-----------3---|----5--8-8---8-|-----------5----|
|-6-6-4-4-3-3-----||----3--6-6---6-|-6-------------|----5--8-8---8--|
|-------------6-6-||-4-------------|---------------|-6--------------|


                                            D.S.S. al Dbl. Coda
  PM---------------------------------------|
  Q  Q  E E E E   Q  Q  E E E E   Q  Q  Q  Q    q  Q  H      W
|---------------|---------------|-------------|------------|-------||
|---------------|---------------|-------------|------------|-------||
|---------------|---------------|-------------|------------|-------||
|---------------|-----------3---|-------------|------------|-------||
|----5--8-8-5-8-|----3--6-6---6-|----3--------|------------|-------||
|-6-------------|-4-------------|-4-----4--5--|-6----------|-------||


                  Outro
  &&
                   N.C.
  PM----------------------------------------------
  Q  Q  E E E E    Q  Q  E E E E   Q  Q  E E E E
|---------------||---------------|---------------|
|---------------||---------------|---------------|
|-----------5---||-----------5---|-----------5---|
|----5--8-8---8-||----5--8-8---8-|----5--8-8---8-|
|-6-------------||-6-------------|-6-------------|
|---------------||---------------|---------------|


 -----------------------------|
  Q  Q  E E E E   Q  Q  E E E E
|---------------|-----------------*|
|---------------|-----------------*|
|-----------5---|-----------5-----*|
|----5--8-8---8-|----5--8-8---8---*|
|-6-------------|-6---------------*|
|---------------|-----------------*|
            
Submit corrections


        I Got Stung lessons Hard to play? Try these video lessons and learn fast I Got Stung lessons
        
↑ Back to top | Tablatures and chords for acoustic guitar and electric guitar, ukulele, drums are parodies/interpretations of the original songs. You may use it for private study, scholarship, research or language learning purposes only