» » »

Elvis Presley - I Beg Of You Tabs

Artists:  A B C D E F G H I J K L M N O P Q R S T U V W X Y Z # 

I Beg Of You Tabs

(ver. 1) Click to play this song!
Elvis Presley
 Rating:
4/5 (4 votes)

 I Beg Of You lessons Tabs too difficult? Try these video lessons and learn fast
 
                Gtr I (E A D G B E) - 'Scotty Moore - Electric Guitar'


 Intro
  Q=166(8=s8)
  C
 4/4
  Gtr I
  Q  Q  E Q  E   Q  E E H      Q  Q  E Q  E   Q  E E H
|--------------|-------------|--------------|-------------||
|--------------|-------------|--------------|-------------||
|----5----3----|-5----3------|----5----3----|-5----3------||
|--------------|-------------|--------------|-------------||
|-3-----3----3-|----3--------|-3-----3----3-|----3--------||
|--------------|-------------|--------------|-------------||


   1st . 4th Verses
    $
    $$
    C
    Q  Q  E Q  E   Q  E E H      Q  Q  E Q  E   Q  Q  H
||---------------|-------------|--------------|------------|
||o--------------|-------------|--------------|------------|
||-----5----3----|-5----3------|----5----3----|-5----------|
||---------------|-------------|--------------|------------|
||o-3-----3----3-|----3--------|-3-----3----3-|------------|
||---------------|-------------|--------------|------------|


  F                            C
  Q  Q  E Q  E   Q  E E H      Q  Q  E Q  E   Q  E E H
|--------------|-------------|--------------|-------------|
|--------------|-------------|--------------|-------------|
|--------------|-------------|----5----3----|-5----3------|
|----3----1----|-3----1------|--------------|-------------|
|--------------|-------------|-3-----3----3-|----3--------|
|-1-----1----1-|----1--------|--------------|-------------|


                                             1.
                                    To Coda
  G              F            C
  Q  Q  E Q.     Q  Q  H      Q  Q  E Q  E    Q  E E H
|--------------|------------|---------------|--------------||
|--------------|------------|---------------|-------------o||
|--------------|------------|----5----3-----|-5----3-------||
|----5----3----|----3-------|---------------|--------------||
|--------------|------------|-3-----3----3--|----3--------o||
|-3-----3------|-1----------|---------------|--------------||


                Bridge
  2.,D.S.
                 F                            C
  Q  E E H       Q  Q  E Q  E   Q  E E H      Q  Q  E Q  E
|-------------||--------------|-------------|--------------|
|-------------||--------------|-------------|--------------|
|-5----3------||--------------|-------------|----5----3----|
|-------------||----3----1----|-3----1------|--------------|
|----3--------||--------------|-------------|-3-----3----3-|
|-------------||-1-----1----1-|----1--------|--------------|


                C                            G
  Q  E E H      Q  Q  E Q  E   Q  E E H      Q  Q  H
|-------------|--------------|-------------|------------|
|-------------|--------------|-------------|------------|
|-5----3------|--------------|-------------|------------|
|-------------|----3----1----|-3----1------|------------|
|----3--------|--------------|-------------|------------|
|-------------|-1-----1----1-|----1--------|-3----------|


                                Outro
          D.S. &
          D.S.
                                 G              F
  E Q.   Q  Q     Q  E E H       Q  Q  E Q.     Q  Q  E Q.
|--------------||-------------||--------------|--------------|
|--------------||-------------||--------------|--------------|
|--------------||-5----3------||--------------|--------------|
|--------------||-------------||----5----3----|----3----1----|
|-----------2--||----3--------||--------------|--------------|
|---3----5-----||-------------||-3-----3------|-1-----1------|


  C                             G
  Q  Q  E Q  E   E E E E H      Q  Q  E Q.
|--------------|--------------|--------------|
|--------------|--------------|--------------|
|----5----3----|-5-----3------|--------------|
|--------------|--------------|----5----3----|
|-3-----3----3-|---3-3--------|--------------|
|--------------|--------------|-3-----3------|


  F              C
  Q  Q  E Q.     Q  Q  E Q  E   E E E E H
|--------------|--------------|--------------*|
|--------------|--------------|--------------*|
|--------------|----5----3----|-5---4-5------*|
|----3----1----|--------------|-----4-5------*|
|--------------|-3-----3----3-|--------------*|
|-1-----1------|--------------|--------------*|

            
Submit corrections


        I Beg Of You lessons Hard to play? Try these video lessons and learn fast I Beg Of You lessons
        
↑ Back to top | Tablatures and chords for acoustic guitar and electric guitar, ukulele, drums are parodies/interpretations of the original songs. You may use it for private study, scholarship, research or language learning purposes only