» » »

Elvis Presley - Hard Headed Woman Tabs

Artists:  A B C D E F G H I J K L M N O P Q R S T U V W X Y Z # 

Hard Headed Woman Tabs

(ver. 1) Click to play this song!
Elvis Presley
 Rating:
4/5 (4 votes)

 Hard Headed Woman lessons Tabs too difficult? Try these video lessons and learn fast
 
                Gtr I (E A D G B E) - 'Scotty Moore - Electric Guitar'


              1st - 5th Verses
  Q=197(8=s8)
           $
           $$
 4/4
  Gtr I
  W            Q  Q  H      Q  Q  H
|----------||-------------|------------|
|----------||o------------|------------|
|----------||-------------|------------|
|----------||-------------|------------|
|----------||o-3----------|-3----------|
|----------||-------------|------------|


                          Chorus
  Q  Q  H      W           E E E E E E E E
|------------|----------||-----------------|
|------------|----------||-----------------|
|------------|----------||-----------------|
|------------|----------||-------------0-0-|
|-3----------|----------||-----0-0-3-3-----|
|------------|----------||-1-1-------------|


  E E E E E E Q    Q.   E +E  E Q    Q  E E +E  E E E   E E E E E E E E
|----------------|-----------------|------------------|-----------------|
|----------------|-----------------|------------------|-----------------|
|----------------|-----------------|------------------|-----------------|
|-1-1-1-1-1-0-1--|------1-(1)-0-1--|------------------|-----------------|
|----------------|-3---------------|-3--3-3-(3)-3-3-3-|-----1-0-1-0-1-0-|
|----------------|-----------------|------------------|-3-3-------------|


                             To Coda
  Q  E E E E E E   Q  E E +E  E E E
|----------------|-------------------|
|----------------|-------------------|
|----------------|-------------------|
|----1-0-1-0-1-0-|-------------------|
|-3--------------|-3--3-3-(3)-3-3-3--|
|----------------|-------------------|


                                       Guitar Solo
 1.                    2.
  E E E E +E  E E E     H    E E E E    E E E E E E E E
|--------------------||--------------||-8-8-8-8-8-8-8-8---|
|-------------------o||------------8-||-------------------|
|--------------------||--------8-9---||-------------------|
|--------------------||--------------||-------------------|
|-3-3-3-3-(3)-3-3-3-o||--------------||-------------------|
|--------------------||--------------||-------------------|


  E E E E E E E E   E E E E E E E  E    Q   Q   H
|-8-8-8-8-8-8-8-8-|-7-8--------------|----------------||
|-----------------|-----7-8----------|----------------||
|-----------------|---------8-9------|----------------||
|-----------------|-------------9-10-|----------------||
|-----------------|------------------|-10s=12s=10\----||
|-----------------|------------------|----------------||


 Bridge
  E E E E E E E E   E E E E E E Q    Q.   E +E  E Q    Q  E E +E  E E E
|-----------------|----------------|-----------------|------------------|
|-----------------|----------------|-----------------|------------------|
|-----------------|----------------|-----------------|------------------|
|-------------0-0-|-1-1-1-1-1-0-1--|------1-(1)-0-1--|------------------|
|-----0-0-3-3-----|----------------|-3---------------|-3--3-3-(3)-3-3-3-|
|-1-1-------------|----------------|-----------------|------------------|


                                                                      D.S.
                                                                      D.S.
  E E E E E E E E   Q  E E E E E E   Q  E E +E  E E E   E E E E +E  E E E
|-----------------|----------------|------------------|---------------------||
|-----------------|----------------|------------------|---------------------||
|-----------------|----------------|------------------|---------------------||
|-----------------|----1-0-1-0-1-0-|------------------|---------------------||
|-----1-0-1-0-1-0-|-3--------------|-3--3-3-(3)-3-3-3-|-3-3-3-3-(3)-3-3-3---||
|-3-3-------------|----------------|------------------|---------------------||


 Outro
  &
  E E E E E E E E   E E E E E e Q    Q  E E E E E E   E E E E    +E   E Q
|-----------------|----------------|----------------|----------------------|
|-----------------|----------------|----------------|----------------------|
|-----------------|----------------|----------------|----------------------|
|-----------------|----------------|----1-0-1-0-1-0-|-1-0-1-1b2==(1)r-1-2--|
|-3-3-3-3-3-3-3-3-|-----0-1-1-0----|-3--------------|----------------------|
|-----------------|-3-3------------|----------------|----------------------|


  E  E     +Q   E  E E  E        E  E     +Q   E  E E  E
|---11b12-(11)--8------11b11.5-|---11b12-(11)--8------11b11.5-|
|-----------------10-8---------|-----------------10-8---------|
|------------------------------|------------------------------|
|------------------------------|------------------------------|
|------------------------------|------------------------------|
|------------------------------|------------------------------|


  E  E     +Q   E  E E E   E E  E E H
|---11b12-(11)--8--------|--------8------*|
|-----------------10-8---|---8-10--------*|
|------------------------|---------------*|
|------------------------|---------------*|
|------------------------|---------------*|
|------------------------|---------------*|

            
Submit corrections


        Hard Headed Woman lessons Hard to play? Try these video lessons and learn fast Hard Headed Woman lessons
        
↑ Back to top | Tablatures and chords for acoustic guitar and electric guitar, ukulele, drums are parodies/interpretations of the original songs. You may use it for private study, scholarship, research or language learning purposes only